Parokya Ni Edgar - Halaga Chords & Tabs

 

Halaga Chords & Tabs

Parokya Ni Edgar Chords & Tabs

Version: 10 Type: Tab 0 ratings
1 star 2 stars 3 stars 4 stars 5 stars
comments

Halaga Tab

   
----------------------------------------------------------------------------
     Halaga - Parokya ni Eedgar
----------------------------------------------------------------------------
Tabbed by:Jay Galace
Email:Kupaloidz12yahoo.com


Cgurado akong Tama ito.Baka sa solo merong sablay.Correct nyu nalang
*Pakinganu nalang yung kanta para sa timing at pattern ng strum*

Tuning:Standard (EADGBE)
Effect:Distortion

Intro

Guiatr 1
e|---------14-15-17-15-14-15--------------17-15-14-15-14--12--------------------|
B|---15-17-------------------15--------15--------------------15-15/17-15-14-15--|
G|-14----------------------------14--16-----------------------------------------|
D|------------------------------------------------------------------------------|
A|------------------------------------------------------------------------------|
E|------------------------------------------------------------------------------|
Guitar 2
e|-----0-2-3-5-3-2-3------------------------------------------------------|
B|---3---------------3------3/5-3-2-3-------------------------------------|
G|-2-------------------2--4-----------------------------------------------|
D|------------------------------------------------------------------------|
A|------------------------------------------------------------------------|
E|------------------------------------------------------------------------|

Guitar 1
e|---------14-15-17-15-14-15------------------------------------------------|
B|---15-17-------------------15--------15/17-15-14-15~----------------------|
G|-14----------------------------14--16-------------------------------------|
D|--------------------------------------------------------------------------|
A|--------------------------------------------------------------------------|
E|--------------------------------------------------------------------------|
[ Tab from: http://www.guitartabs.cc/tabs/p/parokya_ni_edgar/halaga_tab_ver_10.html ]
Guitar 2
e|-----0-2-3-5-3-2-3----------5-3-2-3-2-0---------------------------------|
B|---3---------------3------3-------------2-2/5-3-2-3---------------------|
G|-2-------------------2--4-----------------------------------------------|
D|------------------------------------------------------------------------|
A|------------------------------------------------------------------------|
E|------------------------------------------------------------------------|
Verse
     D     A     Bm
e|---2-----0------2------|
B|---3-----2------3------|
G|---2-----2------4------|
D|---0-----2------4------|
A|---x-----0------2------|
E|---x-----x------x------|

Pre-chorus
Effect

   G  D  A     G  D  Bm  A
e|-3--2--0-----3--2--2---0--|
B|-3--3--2-----3--3--3---2--|
G|-0--2--2-----0--2--4---2--|
D|-0--0--2-----0--0--4---2--|
A|-2-----0-----2-----2---0--|
E|-3-----------3------------|

Chorus
     D     A     Bm    A
e|---2-----0------2----0--|
B|---3-----2------3----2--|
G|---2-----2------4----2--|
D|---0-----2------4----2--|
A|---x-----0------2----0--|
E|---x-----x------x-------|

Solo
e|-----------------------------------------------------------------------|
B|-/10-10-10-10-8-7-8v-7-8-10v-10-8-7------------------------------------|
G|------------------------------------9b(1/2)-7---7----------------------|
D|----------------------------------------------9------------------------|
A|-----------------------------------------------------------------------|
E|-----------------------------------------------------------------------|

e|---------------------17-------------------------------------------------|
B|-------15--17b(Full)----17b(full)-17-15-17-15-14------------------------|
G|-14/16------------------------------------------------------------------|
D|------------------------------------------------------------------------|
A|------------------------------------------------------------------------|
E|------------------------------------------------------------------------|


e|------------------------------------------------------------------------|
B|------------------------------------------------------------------------|
G|--11-11-11-11-----------------------------------------------------------|
D|--------------14-12-14-12-11-9~-----------------------------------------|
A|------------------------------------------------------------------------|
E|------------------------------------------------------------------------|

| /  slide up
| \  slide down
| h  hammer-on
| p  pull-off
| v  vibrato
| +  harmonic
| x  Mute note
Comments