Parokya Ni Edgar - Halaga Lead Chords & Tabs

 

Halaga Lead Chords & Tabs

Parokya Ni Edgar Chords & Tabs

Version: 1 Type: Tab 0 ratings
1 star 2 stars 3 stars 4 stars 5 stars
comments

Halaga Lead Tab

Halaga

Band: Parokya ni Edgar 
Album: Gulong itlog Gulong 
Tabbed by Jeffrey Hernandez (y2jc_28@yahoo.com)

This is a easy song to tab.  Some people helped a little with the solo. I know the minor lead in the last verse is incomplete so you guys can just find it out by yourself. Enjoy.

Intro (effect: distortion)gtr 1
E--------0—2-3-2-0-2------------5—3-2-3-2-------------|
B---3—3-------------3----------3---------3---3s5-3-2-3|
G----2----------------2-----2s4------------2----------|
D-----------------------------------------------------|
A-----------------------------------------------------|
E-----------------------------------------------------|
[ Tab from: http://www.guitartabs.cc/tabs/p/parokya_ni_edgar/halaga_lead_tab.html ]
E----------2-3-2-0-2-------------------|
B------3-5----------3---------3s5-3-2-3|
G---2-4---------------2------2---------|
D--------------------------------------|
A--------------------------------------|
E--------------------------------------|
Background lead(effect: distortion)gtr 2
E---------2-3-2-0-2-----------------------0-2-3-2-0-2---|
B------3-5---------3----------3s5-3-2-3-3------------3--|
G---2-4--------------2-------2---------2---------------2|
D-------------------------------------------------------|
A-------------------------------------------------------|
E-------------------------------------------------------|

E-------5--3-2-3-2------------|
B------3-----------3-3s5-3-2-3|
G---2s4-------------2---------|
D-----------------------------|
A-----------------------------|
E-----------------------------|

Verse 1:

Umiiyak ka na naman   ‘langya talaga wala ka bang ibang alam
Namumugtong mga mata Kailan pa ba ikaw magsasawa
Sa problema na iyong pinapasan Hstid sa iyo ng BF hindi mo maintindihan
May kwento kang pangdrama na naman Parang pan-TV na walang katapusan
Hanggang kailan ka ba ganyan Hindi mo ba alam na walang pupuntahan 
Ang pagtiyaga mo diyan sa BF mong tanga Na wala ng ginawa kundi ang paluhain ka





Chorus: 

Sa libo-libung pagkakataon na tayo’y nagkasama Iilang ulit palang kitang nakitang masaya
Naiinis akong isipin na ginaganyan kanya Siguro ay hindi niya lang alam ang iyong tunay na halaga

(repeat intro)
Comments