Parokya Ni Edgar - Dont Touch My Birdie Chords & Tabs

 

Dont Touch My Birdie Chords & Tabs

Parokya Ni Edgar Chords & Tabs

Version: 1 Type: Tab 0 ratings
1 star 2 stars 3 stars 4 stars 5 stars
comments

Dont Touch My Birdie Tab

ewan ko kung tama ba ito talaga ha..pero try nyo lng gud..

E[-------------------------|----------------------------|
B[--------2-----3-----3s5--|----9---10p9---10h9----14---|
G[-----2-----2-----2-------|--9---9------9------10------|
D[-------------------------|----------------------------|
A[---0---------------------|----------------------------|
E[-------------------------|----------------------------|
[ Tab from: http://www.guitartabs.cc/tabs/p/parokya_ni_edgar/dont_touch_my_birdie_tab.html ]
  -------------------------------------------------------|
  -12-12--14--12--10--12--10--9--7--------------10----15-|
  ----------------------------------9--7--8--7------7----|
  -------------------------------------------------------|
  -------------------------------------------------------|
  -------------------------------------------------------|

  ------------------------------------------------------]
  --14--12--10-----------7-----------------------5------]
  --------------7p6--------6--7p6----------------4------]
  ---------------------7-----------7--6h7--------2------]
  -------------------9---------------------7-----2------]
  -----------------------------------------------0------]


contact nyo nlang ako sa comments:09155520422..or mail nyo nlang: 
nio ha?!!!!i luv u kathleen..bye!!
Comments