Parokya Ni Edgar - Buloy Chords & Tabs

 

Buloy Chords & Tabs

Parokya Ni Edgar Chords & Tabs

Version: 1 Type: Tab 0 ratings
1 star 2 stars 3 stars 4 stars 5 stars
comments

Buloy Tab

   
Tuning: Open e

Guitar (solo):

e-------------5------------------------------(10)-----(10)------------8----8h10----------|
B---7-5---5h7-----7-5--------------------(10)-----(10)----(10)-8-8h10---10---------------|
G-------7-------------7-5h7--------------------------------------------------------------|
D---------------------------7-5h7--------------------------------------------------------|
A---------------------------------7-5s---------------------------------------------------|
E----------------------------------------------------------------------------------------|
[ Tab from: http://www.guitartabs.cc/tabs/p/parokya_ni_edgar/buloy_tab.html ]
e---15-13h15-----------------------------------------------------------------------------|
B------------15-13h15s-------------------------------------------------------------------|
G--------------------------------5---5h7----------7---7h9---------------10----10h12------|
D---------------------------5-5h7--7---------7-7h9--9-----------10-10h12---12------------|
A------------------------5h7--------------7h9--------------10h12-------------------------|
E----------------------------------------------------------------------------------------|


e-----------------------------|
B---------------8s10-10------|
G---------7h9-7---------------|
D---7h9-7---------------------|
A-----------------------------|
E-----------------------------|


Last Part: (solo)

e----------------------------------------------------------------------------------------|
B----3s10-10-----10----------------15-(17)-15-15----15h17--------------------------------|
G--------------------9h10p9--7-7---------------------------16-16-14-14---7h9-7s----------|
D----------------------------------------------------------------------------------------|
A----------------------------------------------------------------------------------------|
E----------------------------------------------------------------------------------------|

Legends:

h= hammer
s= slide
( )= bend 
p= pull-off
Comments