Parokya Ni Edgar - Alumni Homecoming Chords & Tabs

 

Alumni Homecoming Chords & Tabs

Parokya Ni Edgar Chords & Tabs

Version: 1 Type: Tab 0 ratings
1 star 2 stars 3 stars 4 stars 5 stars
comments

Alumni Homecoming Tab

artist:parokya ni edgar
title:alumni homecoming
submitted by:jesse tiongco

sa tingin ko naman ay tama ito..tinugtog namin ito sa battle of the bands
sa skul nmin nung feb.6 2004..bale 2nd yir hyskul kami..tapos nnlo ako
ng best lead guitarist nun..cguro,gwa rin nito..mgnda kasi pkinggan..gn2ng
gan2 ung pagkktugtog ko nun..enjoy..c", )

Solo:

e|-----------------------------------12-10-9-10-----|
B|------------------------------10-9-----------10---|
G|----------9--9-11po9----9-11------9---------------|
D|--7h9-9/11-11-------9h11--------------------------|
A|--------------------------------------------------|
E|--------------------------------------------------|

e|--17-16--------------------------------------------------|
B|-------17------------------------------------------------|
G|---------16-14-13h14-13h14---------14h16po14-16h18po16---|
D|--------------------------14h16po14----------------------|
A|---------------------------------------------------------|
E|---------------------------------------------------------|
[ Tab from: http://www.guitartabs.cc/tabs/p/parokya_ni_edgar/alumni_homecoming_tab.html ]
e|---------------------------------------------------------|
B|--15-17-17b-17b------------------------------------------|
G|-------------------------13-14-13-14-16-16bf-16~~14------|
D|-----------------14/16-16--------------------------------|
A|---------------------------------------------------------|
E|---------------------------------------------------------|

e|----------------|
B|--17bf-17~~-15--|
G|----------------|
D|----------------|
A|----------------|
E|----------------|

e|-----------------------------|
B|--14-15-17po15po14h15--------|
G|---------------------16po14--|
D|-----------------------------|
A|-----------------------------|
E|-----------------------------|

e|--------------------------------------|
B|--------------------------------------|
G|------------13-14-16po14po13----------|
D|-------14-16----------------16po14----|
A|--16-17-------------------------------|
E|--------------------------------------|


e|-------------------------|
B|-------------------------|
G|--7-6-6/7--10-12-12/14---|
D|-------------------------|
A|--5-4-4/5---8-10-10/12---|
E|-------------------------|

~~~~~~~~~~~~~~~~~~~~~~~END~~~~~~~~~~~~~~~~~~~~~~~~
Comments