Parokya Ni Edgar - Alumni Homecoming Chords & Tabs

 

Alumni Homecoming Chords & Tabs

Parokya Ni Edgar Chords & Tabs

Version: 1 Type: Bass Tab 0 ratings
1 star 2 stars 3 stars 4 stars 5 stars
comments

Alumni Homecoming Bass Tab

============================================================================
Title: Alumni Homecoming(Bass)
Artist: Parokya ni Edgar
Album: Bigotilyo
Tabbed by: Klod_Hudas (jc_jubas4@yahoo.com kung may aangal)
============================================================================
Pangalawang gawa ko na ito poh ng bass!(yung una ko yung sa two trick pony).
Di ako sure dito kasi ang bangis talaga ni buwi, pero ayon sa pandinig ko,
pwede na rin... Enjoy!!! Oi! pakirate na lang poh!
[ Tab from: http://www.guitartabs.cc/tabs/p/parokya_ni_edgar/alumni_homecoming_btab.html ]
Intro/Verse
G-------------------------------------------------|
D-------------------------------------------------|
A----4-4p2----2-2p0-------4-4p2-------------------|
E-5---------0--------0-2---------5h7-5-4h5-4--0---|

Chorus
G-----------------------------------------------------|
D-----------------------------------------------------|
A-----------------------------------------5-5-5-5-5---|
E-5-5-5-5-5-----0-0-0-0-0----2-2-2-2-2----------------|

Bridge
G-----------------------------------------------------|
D-----------------------------------------------------|
A-----------------------------------------5-5-5-5-5---|
E-5-5-5-5-5-----0-0-0-0-0----2-2-2-2-2----------------|

G--------------------------------------------|
D--------------------------------------------|
A----------------------------5-5-5-5-5-------|
E-2-2-2-2-2-----0-0-0-0-0--------------------|

-END-
Comments