Parokya Ni Edgar - Absorbing Man Chords & Tabs

 

Absorbing Man Chords & Tabs

Parokya Ni Edgar Chords & Tabs

Version: 3 Type: Tab 0 ratings
1 star 2 stars 3 stars 4 stars 5 stars
comments

Absorbing Man Tab

   
the 6th string is dropped to Db

Stanza Chords

first chord ( C9 )

E----x-----------------|
B----x-----------------|
G----12----------------|
D----12----------------|
A----10----------------|
Db---11----------------|

second chord ( Bb9 )


E----x-----------------|
B----x-----------------|
G----10----------------|
D----10----------------|
A----8-----------------|
Db---9-----------------|

third chord ( Ab9 )
[ Tab from: http://www.guitartabs.cc/tabs/p/parokya_ni_edgar/absorbing_man_tab_ver_3.html ]
E----x-----------------|
B----x-----------------|
G----8-----------------|
D----8-----------------|
A----6-----------------|
Db---7-----------------|

last chord ( G9 )

E----x-----------------|
B----x-----------------|
G----7-----------------|
D----7-----------------|
A----5-----------------|
Db---6-----------------|


Chorus

Ab9 - Bb9 - C9 - Bb9 - Ab9 - Ab9 - Bb9 - C9


C9 - Bb9 - Ab9 - G9
till you...........
Comments