Parliament - Motor Booty Affair Chords & Tabs

 

Motor Booty Affair Chords & Tabs

Parliament Chords & Tabs

Version: 1 Type: Bass Tab 0 ratings
1 star 2 stars 3 stars 4 stars 5 stars
comments

Motor Booty Affair Bass Tab

   
Parliament
"Motor Booty Affair" (1978) 
Bass tab by Jay "J Thang" Julian, jjulian@excite.com 


Note:  5-string bass (B-E-A-D-G)  

(Intro & Refrain)

G|---------------|----------|--------------|----------|--------------|-
D|---------------|----------|--------------|----------|--------------|-
A|-----------6-7-|------6-8-|----------6-7-|------6-8-|----------6-7-|-
E|---8-8-8-8-----|----------|--8-8-8-8-----|----------|--8-8-8-8-----|-
B|---------------|-4-6------|--------------|-4-6------|--------------|-
[ Tab from: http://www.guitartabs.cc/tabs/p/parliament/motor_booty_affair_btab.html ]
                                                     (Verse - Repeat)
G|----------|---------------|----------|----------||--------------------
D|----------|---------------|----------|----------||*-----6---------6---
A|------6-8-|-----------6-7-|------6-8-|------6-8-||----8---8-6---8---8-
E|----------|---8-8-8-8-----|----------|----------||*-------------------
B|-4-6------|---------------|-4-6------|-4-6------||--6---------6-------

G|---|-----6/8/6--------8-8------||-
D|---|--------------------------*||-
A|-6-|---------------------------||-
E|---|---9-------9-9-11---------*||-
B|---|----------------------4-4--||-



Comments