Parliament - Dr Funkenstein Chords & Tabs

 

Dr Funkenstein Chords & Tabs

Parliament Chords & Tabs

Version: 3 Type: Bass Tab 0 ratings
1 star 2 stars 3 stars 4 stars 5 stars
comments

Dr Funkenstein Bass Tab

Here is some bass tab to put in the Parlaiment section in bass tab:

Band: Parliament (P-Funk)
Album: The Clones of Dr. Funkenstein
Song: Dr. Funkenstein
Tabbed by: Dimitris Zarmakoupis(bassman@comfortable.com)

Chorus:

We love to funk you funkenstein, your funk is the best
[ Tab from: http://www.guitartabs.cc/tabs/p/parliament/dr_funkenstein_btab_ver_3.html ]
G------6-------6---------------------------
D------------------------------------------
A-2/4-----2/4------2-1-2-1-2-1-2-1-x-x----- play around
E------------------------------------------ with the 2's
1's and x's


Verses and rest of song:

G------6-------------------6----------------
D-------------------------------------------
A-2/4------x-x-1-2---2/4-------2-1-2---2----
E------------------------------------4---4--

Dimtris Zarmakoupis (bassman@comfortable.com)
******************************************************
Dimitris Aris Zarmakoupis
e-mail: bassman@comfortable.com
California
Quote: Only someone who has lost can be a true winner.
******************************************************


Comments