Parlet - Wolf Tickets Chords & Tabs

 

Wolf Tickets Chords & Tabs

Parlet Chords & Tabs

Version: 2 Type: Bass Tab 0 ratings
1 star 2 stars 3 stars 4 stars 5 stars
comments

Wolf Tickets Bass Tab

Parlet
"Wolf Tickets" (1980) 
Bass tab by Pascal Duvergé, Agubwa@hotmail.com 

[ Tab from: http://www.guitartabs.cc/tabs/p/parlet/wolf_tickets_btab_ver_2.html ]
 
Main Riff
G|--------------------------------------------------------------||
D|--------------------2------0--------4-3-2--------------2--||
A|-----------------------2-------2----------------0^2-------||
E|-0---00---00----------------------------------------------||

I'll get you started on the chorus:
G|----------------9-9--------------------8-8-|--------------------------4--||
D|-----10---------------------9---------------|-----2-----4----5----------||
A|------------7--------------------6----------|----------------------2------||
E|-8---------------------7---------------------|-0-----2-----3-------------||


Comments