Parlet - Play Me Or Trade Me Chords & Tabs

 

Play Me Or Trade Me Chords & Tabs

Parlet Chords & Tabs

Version: 2 Type: Bass Tab 0 ratings
1 star 2 stars 3 stars 4 stars 5 stars
comments

Play Me Or Trade Me Bass Tab

Parlet 
"Play Me or Trade Me" (1980) 
Bass tab by Pascal Duvergé, Agubwa@hotmail.com 



Intro
G|-----------------
D|-------x2--x1--
A|-----------------
E|-2-2------------
[ Tab from: http://www.guitartabs.cc/tabs/p/parlet/play_me_or_trade_me_btab_ver_2.html ]
Verse
G|------------|--5-----------------------------------------||
D|------------|-----7------7---x4--5---------------------||
A|------------|--------0-----------------------------------||
E|-2-2--3-4-|--------------------------x--3----5-5-5---||

Chorus
G|----------------9--------------9-|------5------2------5----2--|------------------------||
D|-------7---------------7---------|------------------------------|------------------------||
A|------------7--------------7-----|--3------0------3-----0----|--6-6-6-6---\---------||
E|--5----------------5-------------|------------------------------|-------------------3----||


Comments