Parkway Drive - Mutiny Chords & Tabs

 

Mutiny Chords & Tabs

Parkway Drive Chords & Tabs

Version: 2 Type: Tab

Mutiny Tab

   
Dropped B

INTRO
C#|----------------------------------------------------------------------|
G#|----------------------------------------------------------------------| 
E |----------------------------------------------------------------------| 
B |-1-0~--1-0-1-3-1-0~--1-0-1-3-1-0~--1-0-1-3----------------------------| 
F#|-1-0~--1-0-1-3-1-0~--1-0-1-3-1-0~--1-0-1-3-3-3-3-3-4-4-4-4-1-1-1-1-4~-| 
B |-1-0~--1-0-1-3-1-0~--1-0-1-3-1-0~--1-0-1-3----------------------------|

C#|----------------------------------------------------------------------|
G#|----------------------------------------------------------------------| 
E |----------------------------------------------------------------------| 
B |-1-0~--1-0-1-3-1-0~--1-0-1-3-1-0~--1-0-1-3----------------------------| 
F#|-1-0~--1-0-1-3-1-0~--1-0-1-3-1-0~--1-0-1-3-3-3-3-3--------------------|
B |-1-0~--1-0-1-3-1-0~--1-0-1-3-1-0~--1-0-1-3---------4-4-4-4-3-3-3-3-1~-|

VERSE 'play a few times'
C#|-------------------------------------------|
G#|-------------------------------------------| 
E |-------------------------------------------| 
B |-------------------------------------------| 
F#|-------5555-6666------5555-6666------1111--|
B |--5555-----------6666-----------1111-------|

C#|-------------------------------------------|
G#|-------------------------------------------| 
E |-------------------------------------------| 
B |-------------------------------------------| 
F#|-------5555-6666------5555-6666-8888-6666--|
B |--3333-----------5555----------------------|

PRE CHORUS 'play a few times'          * = Harmonics
C#|--------------------------------------|
G#|--------------------------------------| 
E |--------------------------------------| 
B |--------------------------------------| 
F#|--5-5--5-5-6-6--6-6--5-5-6-6-8-8-6-6--|
B |--5-5-----------6-6-------------------|

C#|--------------------------------------|
G#|-----------------------------*-*------| 
E |-----------------------------5-5-*-*--| 
B |---------------------------------5-5--| 
F#|--3-3--5-5-6-6------5-5-6-6-----------|
B |--3-3-----------5-5-------------------|

CHORUS   'play a few times, then palm mute the last few times'
C#|----------------------------------------------------------------------|
G#|----------------------------------------------------------------------| 
E |----------------------------------------------------------------------| 
B |-1-0~--1-0-1-3-1-0~--1-0-1-3-1-0~--1-0-1-3----------------------------| 
F#|-1-0~--1-0-1-3-1-0~--1-0-1-3-1-0~--1-0-1-3-3-3-3-3-4-4-4-4-1-1-1-1-4~-| 
B |-1-0~--1-0-1-3-1-0~--1-0-1-3-1-0~--1-0-1-3----------------------------|
[ Tab from: http://www.guitartabs.cc/tabs/p/parkway_drive/mutiny_tab_ver_2.html ]
C#|----------------------------------------------------------------------|
G#|----------------------------------------------------------------------| 
E |----------------------------------------------------------------------| 
B |-1-0~--1-0-1-3-1-0~--1-0-1-3-1-0~--1-0-1-3----------------------------| 
F#|-1-0~--1-0-1-3-1-0~--1-0-1-3-1-0~--1-0-1-3-3-3-3-3--------------------|
B |-1-0~--1-0-1-3-1-0~--1-0-1-3-1-0~--1-0-1-3---------4-4-4-4-3-3-3-3-1~-|

VERSE 'play a few times'
C#|-------------------------------------------|
G#|-------------------------------------------| 
E |-------------------------------------------| 
B |-------------------------------------------| 
F#|-------5555-6666------5555-6666------1111--|
B |--5555-----------6666-----------1111-------|

C#|-------------------------------------------|
G#|-------------------------------------------| 
E |-------------------------------------------| 
B |-------------------------------------------| 
F#|-------5555-6666------5555-6666-8888-6666--|
B |--3333-----------5555----------------------|

VERSE PART 2  'play a few times'
C#|-------------------------------------------|
G#|-------------------------------------------| 
E |-------------------------------------------| 
B |--5555-3333-7777-5555-8888-5555-7777-3333--| 
F#|-------------------------------------------|
B |-------------------------------------------|

C#|------|
G#|------| 
E |------| 
B |--3~--| 
F#|--3~--|
B |--3~--|

BREAKDOWN 2x
C#|-----------------------------------------------------------------------|
G#|-----------------------------------------------------------------------| 
E |-----------------------------------------------------------------------| 
B |-0-0-0-0~----0-0-0----0-0-0-0----0-0-0-0~----0-0-0----0-0-0-0--0--3--5-|
F#|-0-0-0-0~----0-0-0----0-0-0-0----0-0-0-0~----0-0-0----0-0-0-0--0--3--5-|
B |-0-0-0-0~----0-0-0----0-0-0-0----0-0-0-0~----0-0-0----0-0-0-0--0--3--5-|

OTHER PART
C#|-----------------------------------------------|
G#|-----------------------------------------------| 
E |--------7-/10---9-/-5-----5-/-9---------7-/10--| 
B |-0-0-0-0-------------------------0-0-0-0-------|
F#|-0-0-0-05-/-8---7-/-3-----3-/-7--0-0-0-05-/-8--|
B |-0-0-0-0------0-------000--------0-0-0-0-------|

C#|-----------------------------------|
G#|--------------------------------*--| 
E |--14-0-12-0-10-0-12-0-10-0-9-0-10--|
B |-----------------------------------|
F#|-----------------------------------|
B |-----------------------------------|

OUTRO
C#|----------------------------------------------------------------------|
G#|----------------------------------------------------------------------| 
E |----------------------------------------------------------------------| 
B |-1-0~--1-0-1-3-1-0~--1-0-1-3-1-0~--1-0-1-3----------------------------| 
F#|-1-0~--1-0-1-3-1-0~--1-0-1-3-1-0~--1-0-1-3-3-3-3-3-4-4-4-4-1-1-1-1-4~-| 
B |-1-0~--1-0-1-3-1-0~--1-0-1-3-1-0~--1-0-1-3----------------------------|

C#|----------------------------------------------------------------------|
G#|----------------------------------------------------------------------| 
E |----------------------------------------------------------------------| 
B |-1-0~--1-0-1-3-1-0~--1-0-1-3-1-0~--1-0-1-3----------------------------| 
F#|-1-0~--1-0-1-3-1-0~--1-0-1-3-1-0~--1-0-1-3-3-3-3-3--------------------|
B |-1-0~--1-0-1-3-1-0~--1-0-1-3-1-0~--1-0-1-3---------4-4-4-4-3-3-3-3-1~-|