Parkway Drive - Mutiny Chords & Tabs

 

Mutiny Chords & Tabs

Parkway Drive Chords & Tabs

Version: 1 Type: Tab

Mutiny Tab

   
Dropped B

INTRO
C#|----------------------------------------------------------------------|
G#|----------------------------------------------------------------------| 
E |----------------------------------------------------------------------| 
B |-1-0~--1-0-1-3-1-0~--1-0-1-3-1-0~--1-0-1-3----------------------------| 
F#|-1-0~--1-0-1-3-1-0~--1-0-1-3-1-0~--1-0-1-3-3-3-3-3-4-4-4-4-1-1-1-1-4~-| 
B |-1-0~--1-0-1-3-1-0~--1-0-1-3-1-0~--1-0-1-3----------------------------|
[ Tab from: http://www.guitartabs.cc/tabs/p/parkway_drive/mutiny_tab.html ]
C#|----------------------------------------------------------------------|
G#|----------------------------------------------------------------------| 
E |----------------------------------------------------------------------| 
B |-1-0~--1-0-1-3-1-0~--1-0-1-3-1-0~--1-0-1-3----------------------------| 
F#|-1-0~--1-0-1-3-1-0~--1-0-1-3-1-0~--1-0-1-3-3-3-3-3--------------------|
B |-1-0~--1-0-1-3-1-0~--1-0-1-3-1-0~--1-0-1-3---------4-4-4-4-3-3-3-3-1~-|