Parkway Drive - Gimme A D Chords & Tabs

 

Gimme A D Chords & Tabs

Parkway Drive Chords & Tabs

Version: 1 Type: Tab

Gimme A D Tab

LEAD
C#|--7p5p0-7p5p0-7p5p0-7p5p0-7p5p0-7p5p0--|
G#|---------------------------------------|
E |---------------------------------------|PLAY THIS FOR A BIT
B |---------------------------------------|
F#|---------------------------------------|
B |---------------------------------------|

RHYTHM
C#|--------------------------------------------|
G#|--------------------------------------------|
E |--------------------------------------------|
B |-2---------------9-----7h9------------------|
F#|-2---------7---------------------7---10-9-7-|
B |-2----5-5-----5-----5--------5-5---5--------|
[ Tab from: http://www.guitartabs.cc/tabs/p/parkway_drive/gimme_a_d_tab.html ]
C#|---------------------------------------|
G#|---------------------------------------|
E |---------------------------------------| BIT BEFORE THE BREAKDOWN
B |--------7------------------------------|
F#|--0h7h8---8----------------------------|
B |---------------------------------------|

C#|-----------------------------------------------------------------|
G#|-----------------------------------------------------------------|
E |------------------------------------------10---9----7/9/5----5/7-|
B |-0---------------------------------------------------------------|
F#|-0----0-0-0-0-0----0-0-0-0-0----0-0-0-0-0--8---7----5/7/5----3/5-|
B |-0----0-0-0-0-0----0-0-0-0-0----0-0-0-0-0----0----0--------------|

got more but i cbf