Parks Alex - Maybe Thats What It Takes Chords & Tabs

 

Maybe Thats What It Takes Chords & Tabs

Parks Alex Chords & Tabs

Version: 1 Type: Tab 0 ratings
1 star 2 stars 3 stars 4 stars 5 stars
comments

Maybe Thats What It Takes Tab

#-----------------------------------------------------------------------------#
#-- File created with Instab - http://www.pconline.com/~smcarey/instab.html --#
#-----------------------------------------------------------------------------#

Author/Artist: Alex Parks
Title: Maybe Thats what it takes
Transcribed by: Salim Farah
Email: salimfdotcom@hotmail.com

One of my favorite songs. I tried my best to make it sound like the piano, I thi

nk it's good.

Use your thumb, first finger, and second finger to play it.
[ Tab from: http://www.guitartabs.cc/tabs/p/parks_alex/maybe_thats_what_it_takes_tab.html ]
------------------|-----------------------------------------------------------
------------------|---------------7-------------------------------------------
-7--7-----6--6----|-7--7-----6------7-----------------------------------------
-7--7-----7--7----|-7--7-----7--7---------------------------------------------
-5--5--5--5--5--5-|-5--5--5--5------------------------------------------------
------------------|-----------------------------------------------------------
 That was the verse. The next part is the bridge.                             

------------------------------------------------------------------------------
------------------------------------------------------------------------------
--6-----6------7----7------6--6-----6--6-----5--5------5----------------------
--7-----7------7----7------7--7-----6--6-----6--6------6----------------------
--5-----5--5---5----5--5---5--5--5--4--4--4--4--4--4---4----------------------
------------------------------------------------------------------------------
 "never thought so  neeeeeeeear I'm shaded by the red now I want you"         

Comments