Parker Jack - Hard Rock Song Chords & Tabs

 

Hard Rock Song Chords & Tabs

Parker Jack Chords & Tabs

Version: 1 Type: Tab 0 ratings
1 star 2 stars 3 stars 4 stars 5 stars
comments

Hard Rock Song Tab

   

My first and one of my favorite songs ever!!!


Song: Hard Rock Song
Artist: Jack Parker
Tabbed by: Jack Parker
Note: This is one of my first songs ever. It has some kickin riffs if played right.
I hope you will enjoy it.


[ Tab from: http://www.guitartabs.cc/tabs/p/parker_jack/hard_rock_song_tab.html ]
    
	I
e|-------------|                   Standard Tuning
B|-------------|                  e-Easter
G|-------------|                  B-Bunnies
D|-------------|                  G-Get
A|-7-7-7-5-9-8-|                  D-Drunk
E|-5-5-5-3-7-6-|                  A-At
                                  E-Easter
	II                 
e|-------------|
B|-------------|
G|-------------|
D|-7-7-7-5-9-8-|
A|-5-5-5-3-7-6-|
E|-------------|

	III
e|-------------------------------------|
B|-------------------------------------|
G|-------------------------------------|
D|-7-7-7-7-7-7-5-5-4-4-3-3-2-2-2-2-2-2-|
A|-5-5-5-5-5-5-3-3-2-2-1-1-0-0-0-0-0-0-|
E|-------------------------------------|

	IV
e|-------------------------|
B|-------------------------|
G|-------------------------|
D|-------------2-2-2-2-2-2-|
A|-3-3-3-3-3-3-0-0-0-0-0-0-|
E|-1-1-1-1-1-1-------------|


TO PLAY:
Play part I(3x) three times
part II(3x) three times
part III once
part IV(2 1/2x) two and one half times (stop at the switch between chords)
and repeat the whole thing with major distortion.









Comments