Parka Kings - Shocks Chords & Tabs

 

Shocks Chords & Tabs

Parka Kings Chords & Tabs

Version: 2 Type: Bass Tab 0 ratings
1 star 2 stars 3 stars 4 stars 5 stars
comments

Shocks Bass Tab

   
  BTAB: Shocks  
Artist: Parka Kings     
 Album: Buenivedos
Author: Rattman (jratt0@hotmail.com)

**Padrino's Bass Tab Exclusive!**

Don't bother writing to me telling me this is wrong. Its not the same bass
line as the real song, there is far too much improvising to tab it out, this
is a simplified version but it still sounds good. Remember that little stop
(i marked with a *) during the verses. It really sounds good when all the
instruments stop there.

Intro:

This part sometimes has another A E E (-5-0-0-) section in it later in the
song.

G---------------------------------------------------------
D---------------------------------------------------------
A---------------------------------------------------------
E-5-0-0-5-0-0-0-5-0-0-5-0-0-0-5-0-0-5-0-0-0-5-0-0-5-5-5-5-

Verse:
This is not the precise number of strokes. Listen to the song for that.
G---------------------------------------------------------------------
D---------------------------------------------------------------------
A-0-0-0-0-0-0-0-0-4-4-4-4-4-4-4-4-4-*-2-2-2-2-2-2-2-2-----------------
E-----------------------------------------------------0-0-0-0-0-0-0-0-
[ Tab from: http://www.guitartabs.cc/tabs/p/parka_kings/shocks_btab_ver_2.html ]
Chorus:
"You Look At Me.." & "Whose that in the mirror..."
G---------------------------------------------0/2-2-2-2-2-2-2-2-
D-------------------------------0-0-0-0-0-0-0-------------------
A---------------------------------------------------------------
E-2-2-2-2-2-2-2-2-0-0-0-0-0-0-0---------------------------------

G-2-2-2-0-0-0-------6-6-6-------------------
D-------------4-5-7-------7-7-7-7-8-8-8-8-8-
A-------------------------------------------
E-------------------------------------------

This part comes in at the "but my old self is gone" part of the song after the
chorus.
G-----------------------------------------
D-7-7-7-7-7-6-5-4-4-4-7-7-7-7-7-8-8-8-8-8-
A-----------------------------------------
E-----------------------------------------

Slow Ending Part:

G-----------------------------------------------------
D-------2-0-----------2-0-------------2-0------------- x2
A-0-0-0-----4-4-4-4-4-----4-2-2-2-2-2-----4-----------
E-------------------------------------------0-0-0-0-0-

(the drums change here to a kind of marching beat)
G------------------------------------------------------
D------------------------------------------------------
A-0---0---0---0---4---4---4---4----3-3-3-3-----------0-
E---0---0---0---0---4---4---4---4----------0-0-0-0-*---


Taken from Padrino's Bass Tab Archive: http://members.xoom.com/jszalma/
Comments