Parka Kings - Juliette Chords & Tabs

 

Juliette Chords & Tabs

Parka Kings Chords & Tabs

Version: 2 Type: Bass Tab 0 ratings
1 star 2 stars 3 stars 4 stars 5 stars
comments

Juliette Bass Tab

  BTAB: Juliette
Artist: Parka Kings
 Album: Buenivedos
Author: Rattman (jratt0@hotmail.com)

Intro/Horn Riff:
G------------------------------------------------------------------
D-------------------------------------0-----0-------2-------4------
A-----2-------2-------------------2-2---2-2---2-3-3---3-5-5---5----
E-3-3---3---3---3--0-0-3-0--0-3-0----------------------------------

Verse:
G------------------------------------------------------------------
D--------------------2-------4-----------------------2-------4-----
A-----2------2---3-3---3-5-5---5-----2---3/5\3-2-3-3---3-5-5---5---
E-3-3---3--3---3-----------------3-3---3---------------------------
[ Tab from: http://www.guitartabs.cc/tabs/p/parka_kings/juliette_btab_ver_2.html ]
Pre-Chorus:
"Juliette won't stop she'll..."
G----------------------------------------------------------
D-----2-----2----------------------2-----2-----------------
A-3-3---3-3---3-----2------2---3-3---3-3---3-5-5-5---5-3-2-
E---------------3-3---3--3---3-----------------------------

Build-up:
"She lives in the back..."
G---------------------------------------------------------------
D-----2-------2-----------------------2-------2-----------------
A-3-3---3-3-3---3-----2-----------3-3---3-3-3---3-5-5-5---5-3-2-
E-----------------3-3---3-0-0-3-0-------------------------------

[drums]
Horn x2
Verse x2
Pre-Chorus x1
Verse x2
Pre-Chorus x1
Horn x2
Verse x2
Pre-Chorus x1
Horn x2
Pre-Chorus x1
Build Up x1
Horn x2 ->end.

Taken from Padrino's Bass Tab Archive: http://members.xoom.com/jszalma/
Comments