Paranoid Social Club - Wasted Chords & Tabs

 

Wasted Chords & Tabs

Paranoid Social Club Chords & Tabs

Version: 1 Type: Tab

Wasted Tab

   
“Wasted” by: Paranoid Social Club

Tabbed by: Chris Gill(CGill1403@aol.com)

Tuning: D,A,D,G,B,e

CHORUS - dist
E|-----------------------------------------------|
B|-----------------------------------------------|
G|-----------------------------------------------|
D|-12^----7-----9^----4-----2-----4-----7^----0--| 
A|-12^----7-----9^----4-----2-----4-----7^----0--|
D|-12^----7-----9^----4-----2-----4-----7^----0--|
[ Tab from: http://www.guitartabs.cc/tabs/p/paranoid_social_club/wasted_tab.html ]
VERSE - clean
E|----------------------------------------------|
B|--/7------------4------/9------------2--------|
G|--/7--------7---4------/9--------9---2--------|
D|-----7--7-9---9---4-------9--9-11--11--2------|
A|----------------------------------------------|
D|----------------------------------------------|
          * * * *              * * * *
   these notes are played on the keyboard
    but sound just as good on the guitar

CHORUS X2

VERSE X6

CHORUS X4

VERSE X6

CHORUS X4

VERSE X6

CHORUS X9