Paramore - Emergency Chords & Tabs

 

Emergency Chords & Tabs

Paramore Chords & Tabs

Version: 1 Type: Tab 0 ratings
1 star 2 stars 3 stars 4 stars 5 stars
comments

Emergency Tab

   
Title: Emergency
Artist: Paramore
Album: All We Know Is Falling


guitar tab by Trevor Shintaku =D


DROP D!

intro and verse

guitar 2
E----9---9---9--------7---7---7-----------------|
B--7---7---7---7-7--7---7---7----7-7------------|
G---9---9---9---9----9---9---9----9-------------|
D-----------------------------------------------|
A-----------------------------------------------|
D-----------------------------------------------|


verse

guitar 1
                                  2nd time end on
E----------------------------------|-------------|
B----------------------------------|-------------|
G----------------------------------|-------------|
D--2h4-4-4-4--4-4-4-4-2-2-2--------|--0----------|
A--2h4-4-4-4--4-4-4-4-2-2-2--(x2)--|--0----------|
D--2h4-4-4-4--4-4-4-4-2-2-2--------|--0----------|

prechorus (not 100% sure about this)

E--12----------12-------------------------------|
B----14---(x4)---12---(x4)----------------------|
G------14----------14---------------------------|
D---------------------------9--------11---------|
A---------------------------9--(x4)--11-(x4)----|
D---------------------------9--------11---------|

chorus

guitar 1
                                2nd time end on
E-------------------------------|----------------|
B-------------------------------|----------------|
G---------11--14---------11--9--|--7-------------|
D--9--11--11--14--9--11--11--9--|--7-------------|
A--9--11--9---12--9--11--9---7--|--5-------------|
D--9--11----------9--11---------|----------------|

guitar 2

E-----------------------------------------------|
B-----10----10----9----9------------------------|
G--14----14----13---13-------(x3)---------------|
D----------------------------------9------------|
A-----------------------------------------------|
D-----------------------------------------------|

[ Tab from: http://www.guitartabs.cc/tabs/p/paramore/emergency_tab.html ]
E--9---9-7--------------------------------------|
B----7-----10-----------------------------------|
G-----------------------------------------------|
D-----------------------------------------------|
A-----------------------------------------------|
D-----------------------------------------------|

solo and outro

guitar 1


E-----------------------------------------------|
B-----------------------------------------------|
G-----------------------------------------------|
D--2--4--0--2/4--0--2/4-------------------------|
A--2--4--0-------0------------------------------|
D--2--4--0-------0------------------------------|

guitar 2

E-----------------------------------9---------9-------|
B-------9-10------------9-10-----12---12---12---10-9--|
G-----9------9--------9------9-----------9------------|
D-7/9----------9--7/9----------9----------------------|
A-----------------------------------------------------|
D-----------------------------------------------------|


E--------------------9-12----17-16-------17-16--------|
B-------9-10---10-12------10-------17-14--------------|
G-----9------9---------------------------------16-13--|
D-7/9-------------------------------------------------|
A-----------------------------------------------------|
D-----------------------------------------------------|


outro chorus

guitar 1
                                2nd time end on
E-------------------------------|----------------|
B-------------------------------|----------------|
G---------11--14---------11--9--|--7-------------|
D--9--11--11--14--9--11--11--9--|--7-------------|
A--9--11--9---12--9--11--9---7--|--5-------------|
D--9--11----------9--11---------|----------------|

guitar 2

E-----------------------------------------------|
B--10-9-10-9-10-9-------------------------------|
G-----------------9-----------------------------|
D-----------------------------------------------|
A-----------------------------------------------|
D-----------------------------------------------|
Comments