Paramore - Brighter Chords & Tabs

 

Brighter Chords & Tabs

Paramore Chords & Tabs

Version: 2 Type: Tab 0 ratings
1 star 2 stars 3 stars 4 stars 5 stars
comments

Brighter Tab

   
Title: Emergency
Artist: Paramore
Album: All We Know Is Falling


guitar tab by Trevor Shintaku =D


if not 100% correct its VERY close

DROP D!

intro

guitar 1

E--------------------------------------------------|
B--------------------------------------------------|
G-2-------4----------------------------------------|
D-2-(x12)-4-(x4)-4-------0~~~-7-7-x-6--------------|
A-0-------2------4-(x16)-0~~~-7-7-x-6--------------|
D----------------4-------0~~~-7-7-x-6--------------|


guitar 2

E--------------------------------------------------|
B-----9-9-----9-9----------------------------------|
G-----------------6h7-6h7--------------------------|
D-6h7-----6h7--------------------------------------|
A--------------------------------------------------|
D--------------------------------------------------|

e------5---7---9----5-5--4-------------------------|
B--2-3---3---5---5---------------------------------|
G--------------------------------------------------|
D--------------------------------------------------|
A--------------------------------------------------|
D--------------------------------------------------|


verse

guitar 1

E--------------------------------------------------|
B--------------------------------------------------|
G------2-----4-----2-------------------------------|
D--------------------------------------------------|
A----4-----2-----0---------------------------------|
D--4-----2-----0-----------------------------------|


guitar 2

E----------------------|--7------7-------------------|
B--------10------------|----10-----10----------------|
G----9------9---9-(x2)-|-------9---------------------|
D--7---7------7--------|-----------------------------|
A----------------------|-----------------------------|
D----------------------|-----------------------------|

chorus (same as intro)

guitar 1

E--------------------------------------------------|
B--------------------------------------------------|
G-2-------4----------------------------------------|
D-2-(x12)-4-(x4)-4-------0~~~-7-7-x-6--------------|
A-0-------2------4-(x16)-0~~~-7-7-x-6--------------|
D----------------4-------0~~~-7-7-x-6--------------|


guitar 2
[ Tab from: http://www.guitartabs.cc/tabs/p/paramore/brighter_tab_ver_2.html ]
E--------------------------------------------------|
B-----9-9-----9-9----------------------------------|
G-----------------6h7-6h7--------------------------|
D-6h7-----6h7--------------------------------------|
A--------------------------------------------------|
D--------------------------------------------------|

e------5---7---9----5-5--4-------------------------|
B--2-3---3---5---5---------------------------------|
G--------------------------------------------------|
D--------------------------------------------------|
A--------------------------------------------------|
D--------------------------------------------------|

Solo

guitar 1

E--------------------------------------------------|
B--------------------------------------------------|
G--------------------------------------------------|
D--4-4-4--2-2-2--0-0-0--0-0-0-2-2-2----------------|
A--4-4-4--2-2-2--0-0-0--0-0-0-2-2-2----------------|
D--4-4-4--2-2-2--0-0-0--0-0-0-2-2-2----------------|

guitar 2

E--------------17----------------------------------|
B-14---------------14------------------------------|
G-----14-13-14--------14-13-14--11-9---------------|
D--------------------------------------------------|
A--------------------------------------------------|
D--------------------------------------------------|

E--------------17--17-16-14------------------------|
B--14-----------------------14-15-17---------------|
G-----14-13-14-------------------------------------|
D--------------------------------------------------|
A--------------------------------------------------|
D--------------------------------------------------|


breakdown

guitar 1

E--------------------------------------------------|
B--------------------------------------------------|
G--------------------------------------------------|
D--4------2------0-------x-2-----------------------|
A--4-(x8)-2-(x8)-0-(x12)-x-2-----------------------|
D--4------2------0-------x-2-----------------------|

chorus again

solo again

outro

guitar 1
                                             end on
E-------------------------------------------|--------|
B-------------------------------------------|--------|
G-------------------------------------------|--------|
D--4------2------0-------x-2--4------2------|-0------|
A--4-(x8)-2-(x8)-0-(x12)-x-2--4-(x8)-2-(x8)-|-0------|
D--4------2------0-------x-2--4------2------|-0------|


guitar 2

E-------12----|--------|-------12---|---------------|
B--9-10-------|--------|--9-10------|--10-----------|
G-------------|-11-9---|------------|---------------|
D--^repeat----|--------|--^repeat---|-^then---------|
A---8 times---|-^then--|---5 times--|--end on-------|
D-------------|--------|------------|---------------|
Comments