Paramore - Brighter Chords & Tabs

 

Brighter Chords & Tabs

Paramore Chords & Tabs

Version: 1 Type: Bass Tab

Brighter Bass Tab

By:Roland Pada
just didnt count the timing.. you should be able to figure them out yourself just listen to the song....

intro
G|--------------------------------------------------------------|
D|----------0-0-0-0---------------------------------------------|
A|--------------------------------------------------------------|
E|-7-7-7-7-----------3-3-3-3--5-5-5-5-5-5-----------------------|

[ Tab from: http://www.guitartabs.cc/tabs/p/paramore/brighter_btab.html ]
verse
G|--------------------------------------------------------------|
D|----------------0-0--0/---------------------------------------|
A|-2-2--2/------------------------------------------------------|
E|--------3-3--3/---------2-2--2/-------------------------------|

pre-chorus
G|--------------------------------------------------------------|
D|-----------------0-0-0-0--------------------------------------|
A|-2-2-2-2------------------------------------------------------|
E|---------3-3-3-3---------2-2-2-2------------------------------|

chorus
G|--------------------------------------------------------------|
D|------0(x8)---------------------------------------------------|
A|--------------------------------------------------------------|
E|-3(x8)------2(x8)-3(x3)---------------------------------------|


intro x1
verse x2
pre-chorus x2
chorus x4
verse x1
pre-chorus x2
chorus x4
intro x2
pre-chorus x4
chorus x4