Paramita - A Dreamers Lullabye Chords & Tabs

 

A Dreamers Lullabye Chords & Tabs

Paramita Chords & Tabs

Version: 1 Type: Chords

A Dreamers Lullabye Chords

   
Title: A Dreamer's Lullaby
Artist: Paramita
Album: Tala
Track: 5
Time Elasped: 3:52

Intro:
A-C#m-Bm-E (2x)
e----------------------|--------------------------|
B----------------------|--------------------------|
G--5h7--10---7---------|--5h7--10--7--10s12-10----|
D---------------10--7--|--------------------------|
A----------------------|--------------------------|
E----------------------|--------------------------|

e-------------------|-------------------|
B-------------------|-------------------|
G-------------------|-------------------|
D--9h10p9-----------|--9h10p9-----------|	(2x)
A----------9-9s11~--|----------9-9s11~--|
E-------------------|-------------------|
[ Tab from: http://www.guitartabs.cc/tabs/p/paramita/a_dreamers_lullabye_crd.html ]
Verse 1:
	    A
Close your eyes
      C#m
Come fly away with me
      Bm
I'll take you to places
	       E			A
That you've never seen, never been before
	C#m
I know why
			     Bm
Cause all the things you've been through
			 E
And all the things that hurt you

Are eating you alive

(Repeat Intro) /*one time*/

Verse 2:
       A	 C#m
Right here with you
		     Bm
Is where i want to be
		     E
Is where i ought to be
		  A		  C#m
Wipe your tears away cause right now
	    Bm
Time is on our side
	    E
Time is on our side

Instrumental: A-C#m (4x)

Chorus:
Bm-E (2x)
Come live another day (2x)
Bm-E (5x)
Come live another day
(Close your eyes and i'll sing you a lullabye
Nothing to fear cause i'm right here by your side) (4x)

Instrumental: A-C#m (4x)

(Repeat Intro) /*one time*/

Coda:
	     A
Close your eyes
      C#m
Come fly away with me
      Bm
I'll take you to places
		E			A
That you've never seen, never been before