Parallel Universe - Simple Little Nothing Chords & Tabs

 

Simple Little Nothing Chords & Tabs

Parallel Universe Chords & Tabs

Version: 1 Type: Tab 0 ratings
1 star 2 stars 3 stars 4 stars 5 stars
comments

Simple Little Nothing Tab

        this is how it goes i wrote this song for my band paralleluniverse
[ Tab from: http://www.guitartabs.cc/tabs/p/parallel_universe/simple_little_nothing_tab.html ]
       ----------2----3----2-----3-----2----------------------------
       --------3----3----3-----3-----3--------1---------------------
       ------2----2----2-----2-----2--------2-------0---------------
       -----------------------------------3-------2-----------------
       -----------------------------------------3-------------------
       -------------------------------------------------------------



     Then it goes with a G 

-------3----------------------------------------
-------3----------------------------------------
------------------------------------------------
------------------------------------------------
-----2------------------------------------------
-------3----------------------------------------
Comments