Paralamas Do Sucesso - Meu Erro Chords & Tabs

 

Meu Erro Chords & Tabs

Paralamas Do Sucesso Chords & Tabs

Version: 1 Type: Bass Tab 0 ratings
1 star 2 stars 3 stars 4 stars 5 stars
comments

Meu Erro Bass Tab

musica: Meu Erro
artista: Paralamas Do Sucesso
 
Written by Mario Terrazas(fernando_puc@ig.com.br)
 
   RIFF 1 (intro)
G --------------------------------------------
D -----------2\9---7--0--0-----------------
A --0--2--4-----------------4--4--2-------
E --------------------------------------------
                                                                                
 
   RIFF 2 (Eu quis dizer, você não quis escutar...)
G -----------------------------------------------------------------------------------------------------
D -----------------------------------------------------------------------------------------------------
A --0--0--0--0--0--0--2--3--4--4--4--4--4--4--4--0--5--5--5--5--5--5--5--0--5--5---
E ----------------------------------------------------------------------------------------------------
                                                                                
G -----------------------------------------------------------------------------------------------------
D -----------------------------------------------------------------------------------------------------
A --5--5--5--5--4--2------------------------------------------------------------------------------
E -----------------------------------------------------------------------------------------------------
                                                                                
 
   RIFF 3 (Você diz não saber, o que houve de errado...)
G --------------------------------------------------------------------------------------------------
D --------------------2--3--4---------------------------------------------------------------------
A --4--4--4--4--4--4-----------4--0-----4--5--5--5--5--5--5--5--0--5--5--5--5--5----
E -----------------------------------2---------------------------------------------------------------
                                                                                
 
Depois do RIFF3, volta para o RIFF1 ( Bastaria... Ah! Meu Deus era tudo 
que eu queria...), e depois volta para o RIFF3 ( Você diz não saber, o 
que houve de errado.. E o meu erro foi ter, que estar ao seu lado..). 


[ Tab from: http://www.guitartabs.cc/tabs/p/paralamas_do_sucesso/meu_erro_btab.html ]
Comments