Paragraf 119 - Registreret Chords & Tabs

 

Registreret Chords & Tabs

Paragraf 119 Chords & Tabs

Version: 1 Type: Tab 0 ratings
1 star 2 stars 3 stars 4 stars 5 stars
comments

Registreret Tab

   
HEr er registreret

e------------------------------|
B------------------------------|
G------------------------------|
D------------------------------|  x3
A-9-9-9-9-9-9-9-5-5-5-7-7-7----|
E-7-7-7-7-7-7-7-3-3-3-5-5-5----|
   ----------------------------|

e---------------------------------|
B---------------------------------|
G---------------------------------|
D---------------------------------|
A-5-5-5-5-5-5-5-5-4-4-4-4-4-4-4-4-|
E-3-3-3-3-3-3-3-3-2-2-2-2-2-2-2-2-|
[ Tab from: http://www.guitartabs.cc/tabs/p/paragraf_119/registreret_tab.html ]
e--------------------------------------------|
B--------------------------------------------|
G--------------------------------------------|
D--------------------------------------------|
A-9--9-7-9-7-5-5-5-5-5-5-5-5-4-4-4-4-4-4-4-4-|
E-7--7-5-7-5-3-3-3-3-3-3-3-3-2-2-2-2-2-2-2-2-|

e-------------------------------------------------|
B-------------------------------------------------|
G-------------------------------------------------|
D-------------------------------------------------|
A-9---5-5-7-7-7-7-5-5-5-5-5-5-5-5-4-4-4-4-4-4-4-4-|
E-7---3-3-5-5-5-5-3-3-3-3-3-3-3-3-2-2-2-2-2-2-2-2-|

Lavet af Mysli-the-ripper
Comments