Paragraf 119 - Fk Danmark Chords & Tabs

 

Fk Danmark Chords & Tabs

Paragraf 119 Chords & Tabs

Version: 1 Type: Tab 0 ratings
1 star 2 stars 3 stars 4 stars 5 stars
comments

Fk Danmark Tab

Intro/Vers.
e-------------------------------------------------------------------------|
B-------------------------------------------------------------------------|
G-------------------------------------------------------------------------|
D-------------------------------------------------------------------- x 4-|
A-7-7-7-7-7-7-7-7-5-5-5-5-5-5-5-5-4-4-4-4-4-4-4-4-10-10-10-10-9-9-9-9-----|
E-5-5-5-5-5-5-5-5-3-3-3-3-3-3-3-3-2-2-2-2-2-2-2-2--8--8--8--8-7-7-7-7-----|
[ Tab from: http://www.guitartabs.cc/tabs/p/paragraf_119/fk_danmark_tab.html ]
Omkved. - 1.guitar
e-------------------------|
B-------------------------|
G-------------------------|
D------------------   x 4-|
A-7-7-5-5-10-10-9-9-------|
E-5-5-3-3--8--8-7-7-------|
Omkved. - 2.guitar
e------------------|
B------------------|
G------------------|
D------------------|   x 4
A-7----------------|
E-5----------------|

Intro x2
Vers 1 x2
Omkv. x4 (g1. spiller d. 1. og g2. det 2.)
Vers 2 x2
Omkv. x4 (denne gang spiller begge g. g1.)
vers. 3 x2
omkv. x4 (samme som andet omkv.)

Af mysli-the-ripper
Comments