Paradise Lost - True Belief Chords & Tabs

 

True Belief Chords & Tabs

Paradise Lost Chords & Tabs

Version: 2 Type: Tab 0 ratings
1 star 2 stars 3 stars 4 stars 5 stars
comments

True Belief Tab

   
>---------------------------------------------------------------
> #----------------------------------PLEASE NOTE---------------------------------#
> 
> #This file is the author's own work and represents their interpretation of the>
> #song. You may only use this file for private study, scholarship, or research. #
> 
> #------------------------------------------------------------------------------##
> 
> ARTIST          Paradise Lost
> SONG            True Belief
> ALBMN   ICON
> MUSIC BY        Gregor Mackintosh
> WORDS BY        Nick Holmes
> 
> TRANSCRIBED BY Mark Graham
> E-Mail  primetime@clara.net
> 
> Tuning:(1:D 2:A 3:F 4:C 5:G 6:D)
> tune down 1 whole step
> 
> riff 1
> 
> intro solo
> 
|------------------------------------------------------------==--------|
|----------------------------------------------------------------------|
|----------------------------------------------------------------------|GREGOR
|-------7-h9---9-9~~----7-h9---9-9~~------7-h9---9h10-10p9-9h7-7~~~----|0.00
|----------------------------------------------------------------------|
|----------------------------------------------------------------------|
>
|----------------------------------------------------------------------|
|------------------------------------------Damped----------------------|
|------------------------------------------------------------2---------|GREGOR
|7--9-9/10-9~--9h10p9------------------------------2---4--5------------|
|------------------------5-5~~------------2--3--5----------------------|
|-------------------------------0-3^--3--------------------------------|
>
|----------------------------------------------------------------------|
|-------------------------------10-10h12-12/13-12h13-10----------------|
|---5h7---7-7/9----9-9/12---12---------------------------9-------------|GREGOR
|-------------------------------------------------------------10--7~~~~|
|----------------------------------------------------------------------|
|----------------------------------------------------------------------|

>  as this last peice is played gregor shakes the A note until feedback
   occurs to "CHEAT" 
a.  hit  fret 10 on string 2 and shake string 
b.  touch metal fret 22 on string 2 
c.  you will then get the exact pitch of feedback that Gregor achieves
> 
> Riff 1
|---------------------------------------------------------------------|
|-----repeat-riff-----------------------------------------------------|
|--------------------------------------2----2-2-----------------------|AARON
|--2---2-2-2---2-2-2----2-2-2----2-2---2----2-2----5--5---5--5--------|0.00
|--2---2-2-2---2-2-2----2-2-2----2-2---0----0-0----5--5---5--5--------|
|--0---0-0-0---0-0-0----0-0-0----0-0---------------3-3----3--3--------|

> Wreched will host the pleasure......................
You can Wait to become a memory................
I dont know about a century of lies
> Riff 2
|------------------------------------------------------------------------|
|----Heavily-muted-------------------------------------------------------|
|------------------------------------------------------------------------|AARON
|-7-7-7-7-7-7-7-7--5-5-5-5-5-5-5-7--5-5-5-5-5-5-5-5--3-3-3-3-3-3-3-3-3---|
|-7-7-7-7-7-7-7-7--5-5-5-5-5-5-5-5--5-5-5-5-5-5-5-5--3-3-3-3-3-3-3-3-3-2-|
|-5-5-5-5-5-5-5-5--3-3-3-3-3-3-3----3-3-3-3-3-3-3-3--1-1-1-1-1-1-1-1-1-0-|

> riff 3
 allIwantisthesame....................
|-----------------------------------------------------------------------|
|-----------------------------------------------------------------------|
|-----------------------------------------------------------------------|GREGOR
|-5-5-5-5-5-5-5-7-7-7-7-7-7-7-7-10-10-10-10-10-10-1010-9-9-9-9-9-9-9-9--|
|-----------------------------------------------------------------------|
|-----------------------------------------------------------------------|
>
|----------------------------------------------------------------------|
|----------------------------------------------------------------------|
|----------------------------------------------------------------------|GREGOR
|5-5-5-5-5-5-5---7-7-7-7-7-7-7-7---------------------------------------|
|----------------------------------------------------------------------|
|----------------------------------------------------------------------|

> riff 3
> all I want is the 
|----------------------------------------------------------------------------------|
|----------------------------------------------------------------------------------|
|----------------------------------------------------------------------------------|AARON
|--------------------------------2-2---2-2-2-2-2-2-2--2-2-2-2-2--------------------|
|-2-2--2-2-2-2-2-2-2--2-2-2-2-2--0-0---0-0-0-0-0-0-0--0-0-0-0-0-2-2--2-2-2-2-2-2-2-|
|-0-0--0-0-0-0-0-0-0--0-0-0-0-0---------------------------------0-0--0-0-0-0-0-0-0-|

>  riff 4 atruebelief...................
|-----------------------------------------------------------------------------|
|-----------------------------------------------------------------------------|
|-----------------------------------------------------------------------------|GREGOR
|---10-9-10-9---10-9-10-9-10-9---10-9---9--7--9-7-9-7-9-7-9-7-6~~-------------|
|-----------------------------------------------------------------------------|
|-----------------------------------------------------------------------------|

> riff 4a truebeilef..................................
|-----------------------------------------------------------------------------|
|-----Damped------------------------------------------------------------------|
|-----2---2----2-2----5---5-----5-5-------------------------------------------|AARON
|-----2---2----2-2----5---5-----5-5-------------------------------------------|
|-----0---0----0-0----3---3-----3-3----2--2--2-2---2-2---2--2-----------------|
|--------------------------------------0--0--0-0---0-0---0--0-----------------|

|-----------------------------------------------------------------------------|
|-----------------------------------------------------------------------------|
|-----------------------------------------------------------------twice-------|BOTH
|-----9-----9------12---12----7/9-9---9------------------------7--------------|
|-----9-----9------12---12----9/7-7---7--------------------5---5--------------|
|-----7-----7------10---10--------------------3-2-3-2-3-2--3------------------|

|----------------------------------------------------------------------------|
|----------------------------------------------------------------------------|
|----------------------------------------------------------------------------|BOTH
|-----7-----7------10---10----5-/7--7---7---------------------5--------------|
|-----7-----7------10---10----3/-5--5---5-----------------3---3--------------|
|-----5-----5----- 8----8--------------------1-0-1-0-1-0--1------------------|
> 
> solo Gregor                     note chords for solo 
|-----------------------------------------------------------------------|
|-----------------------------------------------------------------------|
|-----------------------------------------------------------------------|Gregor
|-6--7-7-7---7-7---9--10-9---5--5-5---10-10-9-7--7-7--10-10-10-9-9-9--7-|
|-----------------------------------------------------------------------|
|-----------------------------------------------------------------------|
> 
> Sounds like a harmony hear play which ever suitssuitsu
|-----------------------------------------------------------------------------|
|-----------------------------------------------------------------------10~~~-|
|-8-9-9-9--9-9--11-12-11--7--7-7--12-12-11--9--9-9--12-12-12-11-11-11-9---GIT1| 
|-6-7-7-7--7-7---9-10--9--5--5-5--10-10-9---7--7-7--10-10-10-9--9--9--7~~-GIT2|
|-----------------------------------------------------------------------------|
|-----------------------------------------------------------------------------|

[ Tab from: http://www.guitartabs.cc/tabs/p/paradise_lost/true_belief_tab_ver_2.html ]
/ The following is the author's own interpretation of the song, to be used -
/ for studying or private use only, removal of any part of this ten line   -
/ header is illegal!!!  Removal of the transcribers name or anything       -
/ relevant to the transcriber is also illegal, as so is the removal of the -
/ place inwhich the tab was downloaded. Publishing as well as printing of  -
/ the tab is illegal without permission of the transcriber and copyright   -
/ owner of the song. Failure to apply to these laws result will in legal   -
/ action from the appropriate parties.                                     -



From: Bjoern Winkler 

'True Belief' as recorded by Paradise Lost on 'ICON'
Tab: as heard by Bj"orn Winkler

Send corrections, additions etc to: bwinkler@stud.uni-frankfurt.de
Send flames to: satan@hell.com
--------------------------------------------------------------------
Tune down a semitone for this song. Listen to the CD to get the timing.


  |-----------Riff 1----------------------|
e:-----------------------------------------|
B:-----------------------------------------|
G:6h8------6h8------6h8--------------------|
D:6h8------6h8------6h8------6------4------|
A:6--------6--------6--------6------4------|
E:6--------6--------6--------4------2------|

  |------Intro Lead ---------------------------
e:--------------------------------------------|
B:--------------------------------------------|
G:--------------------------------------------|
D:6h8------6h8------6h8--8h9--9p8--8p6--6-----|
A:--------------------------------------------|
E:--------------------------------------------|

  ----------------------------------------------------------
e:---------------------------------------------------------|
B:---------------------------------------------------------|
G:---------------------------------------------------------|
D:6--8--8h9p8-----9--8--6----------------------------------|
A:-------------------------6----4--4-----------------------|
E:------------------------------------6--6--6--4--2--2--2--|
                                     PM PM          PM PM



  ---------------------------------------------------------------------------
e:---------------------------------------------------------------------------|
B:---------------------------------------------------------------------------|
G:---------------------------------------------------------------------------|
D:---------------6--8--9--9h11--11/13--13/16--16/18/20--20h21---20h21p20p18--|
A:---------6--9--------------------------------------------------------------|
E:6--7--9--------------------------------------------------------------------|
  |_______PM___________|

               
               
  -----------| 
e:------------|
B:------------|
G:------------|
D:----18~~~~~~|
A:21----------|
E:------------|
       Feedback



  |-----Riff 2---------------------------------------------------|
e:----------------------------------------------------------------|
B:----------------------------------------------------------------|
G:----------------------------------------------------------------|
D:6-6-6-6-6-6-6-6-4-4-4-4-4-4-6-6-4-4-4-4-4-4-4-4-2-2-2-2-2-2-4-4-|
A:6-6-6-6-6-6-6-6-4-4-4-4-4-4-6-6-4-4-4-4-4-4-4-4-2-2-2-2-2-2-4-4-|
E:4-4-4-4-4-4-4-4-2-2-2-2-2-2-4-4-2-2-2-2-2-2-2-2-0-0-0-0-0-0-2-2-|
  |____________PM___________|   |______________PM___________|



  |-----Bridge---------------------------------------------------------------
e:---------------------------------------------------------------------------|
B:---------------------------------------------------------------------------|
G:---------------------------------------------------------------------------|
D:4-4-4-4-4-4-4-4-6-6-6-6-6-6-6-6-9-9-9-9-9-9-9-9-8-8-8-8-8-8-8-8-4-4-4-4-4-4|
A:4-4-4-4-4-4-4-4-6-6-6-6-6-6-6-6-9-9-9-9-9-9-9-9-8-8-8-8-8-8-8-8-4-4-4-4-4-4|
E:2-2-2-2-2-2-2-2-4-4-4-4-4-4-4-4-7-7-7-7-7-7-7-7-6-6-6-6-6-6-6-6-2-2-2-2-2-2|
  |______________________PM__________________________________________________



  --------------------| |-------Bridge Lead----------------------------------
e:---------------------|-----------------------------------------------------|
B:---------------------|-----------------------------------------------------|
G:---------------------|-----------------------------------------------------|
D:-4-4-6-6-6-6-6-6-6-6-|----------------6-6-6-6-6-6-6-6-9-9-9-9-9-9-9-9-8-8-8|
A:-4-4-6-6-6-6-6-6-6-6-|9-9-9-9-9-9-9-9--------------------------------------|
E:-2-2-4-4-4-4-4-4-4-4-|-----------------------------------------------------|
  ____________________|

                                              

  ------------------------------------------|
e:-------------------------------------------|
B:-------------------------------------------|
G:-------------------------------------------|
D:-8-8-8-8-8-----------------6-6-6-6-6-6-6-6-|
A:-----------9-9-9-9-9-9-9-9-----------------|
E:-------------------------------------------|

  |--------Chorus------------------------------------------------|
e:----------------------------------------------------------------|
B:----------------------------------------------------------------|
G:----------------------------------------------------------------|
D:6-------------6-9-------------9-8-------------8-8---------------|
A:6-------------6-9-------------9-8-------------8-8---------------|
E:4-------------4-7-------------7-6-------------6-6---------------|




  |-------Chorus Lead--------------------------------------------|
e:----------------------------------------------------------------|
B:----------------------------------------------------------------|
G:----------------------------------------------------------------|
D:9-8-8-9-8-8-9-8-9-8-8-9-8-8-9-8-8-6-6-8-6-6-8-6-8-6-6-8-6-8-6-5-|
A:----------------------------------------------------------------|
E:----------------------------------------------------------------|


                        
                        
  2nd Time
e:---------------------|
B:---------------------|
G:---------------------|
D:6~~~~~~~~~~~~~~~~~~~~|
A:---------------------|
E:---------------------|
   Feedback



  |---Break 1---------------------------|
e:---------------------------------------|
B:---------------------------------------|
G:---------------------------------------|
D:8---8-11----\-11-13----4-3-4-3-4-3-4-3-|
A:8---8-11----\-11-13----4-3-4-3-4-3-4-3-|
E:6---6-9-----\-9--11----2-1-2-1-2-1-2-1-|

  |-----Break 2-----------------------|
e:-------------------------------------|
B:-------------------------------------|
G:---------------------9-8-9-8-9-8-9-8-|
D:6---6-9----\-9-11----9-8-9-8-9-8-9-8-|
A:6---6-9----\-9-11----7-6-7-6-7-6-7-6-|
E:4---4-7----\-7-9---------------------|

  |------Outro Lead--------------------------------
e:------------------------------------------------|
B:------------------------------------------------|
G:------------------------------------------------|
D:---6-6-6---6-6-8-9-8-----9-9-8---6-6-9---9-8-6--|
A:10-------------------9--------------------------|
E:------------------------------------------------|




  ---------------------------------------------|
e:----------------------------------------------|------------|
B:----------------------------------------------|------------|
G:----------------------------------------------|------------|
D:6-6-6-6---6-6-8-9-8-----9-9-8---6-6-9---9-8-6-|6~~~~~~~~~~~|
A:--------------------9-------------------------|------------|
E:----------------------------------------------|------------|
                                                  Feedback


Now here is the order of the parts:

2 * Riff 1 w/Intro Lead
4 * Riff 2
1 * Bridge w/Bridge Lead
2 * Chorus w/Chorus Lead
4 * Riff 2
1 * Bridge w/Bridge Lead
2 * Chorus w/Chorus Lead
2 * Break 1
2 * Break 2
2 * Riff 2
1 * Bridge w/Bridge Lead
4 * Chorus w/Chorus Lead
2 * Chorus w/Outro Lead


That's it.
Comments