Paradise Lost - Say Just Words Chords & Tabs

 

Say Just Words Chords & Tabs

Paradise Lost Chords & Tabs

Version: 2 Type: Tab 0 ratings
1 star 2 stars 3 stars 4 stars 5 stars
comments

Say Just Words Tab

"Say Just Words" by Paradise Lost

Music: Greg Mackintosh
Lyrics: Nick Holmes

Transcribed by: Christian Hedin (alien@ramses.ml.org)
Any comments just e-mail me, or look for me on IRC (alien).
Look out for my coming Paradise Lost web site on http://ramses.ml.org/alien

Tune down one step

INTRO (keyboard) 2X (Used over RIFF 1 too!)
E ------------------------------|-------------------------------------------
B ------------------------------|-------------------------------------------
G -----------7-------9---10-----|-----------7--------9----10----------------
D ------7--------7--------------|-------7-------7---------------8-----------
A ------------------------------|-------------------------------------------
E ------------------------------|-------------------------------------------

INTRO RIFF (there's some strange noise in the background too..)
E ------------------------------|-------------------------------------------
B ------------------------------|-------------------------------------------
G -7----------------------------|-------------------------------------------
D -7----------------------------|-------------------------------------------
A -5----------------------------|-------------------------------------------
E ------------------------------|-------------------------------------------

KEYBOARD RIFF over intro riff
E --------------0---1-----------|-------------0---1-------------------------
B -----3------------------------|-----3-------------------------------------
G -2-------2--------------------|-2-------2------------3--------------------
D ------------------------------|-------------------------------------------
A ------------------------------|-------------------------------------------
E ------------------------------|-------------------------------------------

RIFF 1
E ------------------------------|-------------------------------------------
B ------------------------------|-------------------------------------------
G ------------------------------|-------------------------------------------
D -7-7-7-7-7-7-7-7-10101010101010105-5-5-5-5-5-5-5-3-3-3-3-3-3-3-3----------
A -5-5-5-5-5-5-5-5-8-8-8-8-8-8-8-8-3-3-3-3-3-3-3-3-1-1-1-1-1-1-1-1----------
E ------------------------------|-------------------------------------------

Last Time:
E ------------------------------|-------------------------------------------
B ------------------------------|-------------------------------------------
G ------------------------------|-------------------------------------------
D -7-7-7-7-7-7-7-7-10101010101010105-5-5-5-5-5-5-5-3------------------------
A -5-5-5-5-5-5-5-5-8-8-8-8-8-8-8-8-3-3-3-3-3-3-3-3-1-5-5-5-5-5-5-5----------
E ------------------------------|--------------------3-3-3-3-3-3-3----------
[ Tab from: http://www.guitartabs.cc/tabs/p/paradise_lost/say_just_words_tab_ver_2.html ]
VERSE RIFF 1 (You can't hide...)
E ------------------------------|------------------------|------------------
B ------------------------------|------------------------|------------------
G -----------------3---3--------|----------------3---3---|------------------
D -7-----7-7-7-------5----------|-7-7-7-7-7--------5-----|-7-7-7-7-7--------
A -5-----5-5-5-----overdrive----|-5-5-5-5-5----overdrive-|-5-5-5-5-5--------
E -------mute-------------------|-mute-------------------|------------------


E ------------------------------|-------------------------------------------
B ------------------------------|-------------------------------------------
G ------------------------------|-------------------------------------------
D -2-----5----------------------|-------------------------------------------
A -0-----3----------------------|-------------------------------------------
E ------------------------------|-------------------------------------------

VERSE RIFF 2
E ------------------------------|-------------------------------------------
B ------------------------------|-------------------------------------------
G ------------------------------|-------------------------------------------
D -2-----2-2-2------------------|-2-2-2-2-2---------------2-2-2-2-2---------
A -0-----0-0-0-----3-0-3--------|-0-0-0-0-0-----3-0-3-----0-0-0-0-0---------
E -----------------overdrive----|---------------overdrive-------------------


END RIFF (after keyboard again)
E ------------------------------|-------------------------------------------
B ------------------------------|-------------------------------------------
G ------------------------------|-------------------------------------------
D -7----------------------------|-6-----------------------------------------
A -5----------------------------|-4-----------------------------------------
E ------------------------------|-------------------------------------------


E ------------------------------|-------------------------------------------
B ------------------------------|-------------------------------------------
G ------------------------------|-------------------------------------------
D -7----------------------------|-6-------------------------6-6-6-6-6-6-6-6-
A -5----------------------------|-4-------------------------4-4-4-4-4-4-4-4-
E ------------------------------|-------------------------------------------

You get high with your destructive instinct
You get high with your corrosive instinct
Where can I go, to escape your foul mind tricks?
You're trying it more, but you will never break me
Cause you presume, the winner is you
But that's not true so say just words to me

Unreal what your hate's providing, say just words to me
Your talk is always contradiction, say just words to me
is it true that there is worth inside, so say just words to me

Your designs, all the worse from power craving
Your desires, only where there's fire burning
I'll show you the way, a pleasure that's for the taking
You're trying it more but you won't get satisfaction
Cause you presume the winner is you
but that's not true so say just words to me

Christian Hedin (alien@ramses.ml.org)
Comments