Paradise Lost - Mouth Chords & Tabs

 

Mouth Chords & Tabs

Paradise Lost Chords & Tabs

Version: 2 Type: Bass Tab 0 ratings
1 star 2 stars 3 stars 4 stars 5 stars
comments

Mouth Bass Tab

   
Artist: Paradise Lost
Title: Mouth
Album: believe in nothing
 
tabbed by : Felix Kiesewetter (themaster@ironmaiden.com)
 

BASS TAB
 
Dropped D tuning (D,A,D,G)
 
Intro/Chorus
G|-------------------|-------------------|
D|-------------------|-------------------|
A|-5-5-3h5-3h5-5h6p5-|-------------------|
D|-------------------|-7-7-5h7-5h7-7h8p7-|
 
G|----------------------------------|-------------|-------|
D|----------------------------------|-------------|-------|
A|----------------------------------|-------------|-------|
D|-2--2--2-2-0-2--2-2--2-2-0-2--2-2-|-2-0-2-2-0-2-|-(2-2)-|
 
[ Tab from: http://www.guitartabs.cc/tabs/p/paradise_lost/mouth_btab_ver_2.html ]
Verse
G|------------------------------|
D|------------------------------|
A|-3-3-33-33-3-2--------------2-|
D|----------------5-5-55-55-5---|
 
G|------------------------------|
D|------------------------------|
A|-5-5-55-55-5-2----------------|
D|----------------2-2-22-22-2-2-|
 

Interlude              x2
G|--------------------|
D|--------------------|
A|--------------------|
D|-5-55-5-5-5-5-5-5-5-|
                       x2
G|--------------------|
D|--------------------|
A|--------------------|
D|-2-22-2-2-2-2-2-2-2-|
                       x2
G|--------------------|
D|--------------------|
A|-1-11-1-1-1-1-1-1-1-|
D|--------------------|
                       x2
G|--------------------|
D|--------------------|
A|--------------------|
D|-2-22-2-2-2-2-2-2-2-|
 
 
 
structure:
Intro x2
Verse x2
Chorus x2
Verse x2
Chorus x2
Interlude
Verse x2
Chorus x2
Verse x4
 
END 
 
that's it, pretty easy, but I think, the rythm is hard to get.
Have fun!
Comments