Paradise Lost - Enchantment Chords & Tabs

 

Enchantment Chords & Tabs

Paradise Lost Chords & Tabs

Version: 1 Type: Tab 0 ratings
1 star 2 stars 3 stars 4 stars 5 stars
comments

Enchantment Tab

   
   Paradise Lost
                            Draconian Times
                             *Enchantment*
Not ready yet !!!
Errors.......

some errors fixed

tune one step down


g1

|------------------------------|--------------------------------|
|------------------------------|--------------------------------|
|--99999--77777--5555--4444----|---9999-7777--------------------|
|--77777--55555--3333--2222----|---7777-5555--5555--7777--------|
|------------------------------|--------------3333--5555--------|
|------------------------------|--------------------------------|

g2
|----------------------------|-------------------------------------------|
|----------------------------|-------------------------------------------|
|----------------------------|-------------------------------------------|
|----------------------------|-------------------------------------------|
|-99999/-77/5555--3333--2222-|---9999-7777-55555-7777-2222---------------|
|-77777/-55/3333--1111--0000-|---7777-5555-33333-5555-0000---------------|

g2
|------------------------------------------------------------------------|
|------------------------------------------------------------------------|
|------------------------------------------------------------------------|
|------------9999--------------------------------------------------------|
|------------9999--------------------------------------------------------|
|------------7777--------------------------------------------------------|
[ Tab from: http://www.guitartabs.cc/tabs/p/paradise_lost/enchantment_tab.html ]
g2
|------------------------------------------------------------------------|
|------------------------------------------------------------------------|
|------------------------------------------------------------------------|
|-------9--12--11--12--7--2----------------------------------------------|
|-------7--10--9---10--5--2----------------------------------------------|
|-------------------------0----------------------------------------------|

g1
|----------0--------0----0-----------------------------------------------|
|--------3---3----3---3----3---------------------------------------------|
|------2-------2-------------2-------------------------------------------|
|------------------------------------------------------------------------|
|-------Not sure this!!!!!!----------------------------------------------|
|------------------------------------------------------------------------|

g2
|------------------------------------------------------------------------|
|------------------------------------------------------------------------|
|------------------------------------------------------------------------|
|--2-5---5/4/------------------------------------------------------------|
|--0-3-2-3/2/5-----------------------------------------------------------|
|------0-----3-----------------------------------------------------------|


solo (not yet)

|------------------------------|--------------------------------|
|------------------------------|--------------------------------|
|--99999--77777--5555--4444----|---9999-7777--------------------|
|--77777--55555--3333--2222----|---7777-5555--5555--7777--------|
|------------------------------|--------------3333--5555--------|
|------------------------------|--------------------------------|


|------------------------------------------------------------------------|
|------------------------------------------------------------------------|
|------------------------------------------------------------------------|
|--2-------5-------------5-4------2----5----------5-2--------------------|
|--0-------3------2------3-2-5----0----3-----2----3-2--5-----------------|
|-----------------0----------3---------------0---------3-----------------|

|end|

Find more Paradise Lost tabs
http://www.nettilinja.fi/~mika

--------------------------------------------------------------------------
If you want help me this,just email:mikap@nettilinja.fi
Comments