Parachute - She For Liz Chords & Tabs

 

She For Liz Chords & Tabs

Parachute Chords & Tabs

Version: 1 Type: Tab 0 ratings
1 star 2 stars 3 stars 4 stars 5 stars
comments

She For Liz Tab

Ok i am pretty sure this is right. all of the other tabs werent very good so i decided 
make this.

Intro/Verse

E-----------------------|
B-----------------------|
G--6--8-9-----8-9-------|
D--6--8-9--7--8-9--2-4--|
A--4--6-7--7--6-7--2-4--|
E----------5-------0-2--|


Chorus and bridge
[ Tab from: http://www.guitartabs.cc/tabs/p/parachute/she_for_liz_tab.html ]
E-----------------------|
B-----------------------|
G--6--9-----------------|
D--6--9--9--6-7---------|
A--4--7--9--6-7---------|
E--------7--4-5---------|

Those are the basic chords. timing might be a bit off but if you listen to the song then 
get the pattern. I hope this helped. Feel free to comment and rate.
Comments