Parachute - Kiss Me Slowly Chords & Tabs

 

Kiss Me Slowly Chords & Tabs

Parachute Chords & Tabs

Version: 2 Type: Tab 0 ratings
1 star 2 stars 3 stars 4 stars 5 stars
comments

Kiss Me Slowly Tab

Capo 2nd

Intro/Verse
E----------------------------------------------------------------------|
B---------3-------3-------3--------3-------3-------3-------3-----------|
G-----0-------0-------0--------0-------0-------0-------0---------------|
D----------------------------------------------------------------------|
A---2---2---2---2---2---2----------------------------------------------|
E ----------------------------2---2---3---3---3---3---3---3------------|
[ Tab from: http://www.guitartabs.cc/tabs/p/parachute/kiss_me_slowly_tab_ver_2.html ]
E----------------------------------------------------------------------|
B---------3-------3-------3-------3-------3----------------------------|
G-----0-------0-------0-------0-------0--------------------------------|
D----------------------------------------------------------------------|
A---2---2---3---3---3---3---3---3---3---3------------------------------|
E ---------------------------------------------------------------------|

E--------------------------------------------------------------------|
B---------0-------0-------0-------0----------------------------------|
G--------------------------------------------------------------------|
D-----4-------4-------4-------4--------------------------------------|
A---5---5---5---5---5---5---5---5------------------------------------|
E--------------------------------------------------------------------|

Chorus/Bridge
E--------0------0------0------0--------------------------------------|
B--------3------3------3------3--------------------------------------|
G--------0------0------0------0--------------------------------------|
D--------2------0------0------4--------------------------------------|
A--------3------0------2------5--------------------------------------|
E--------0------3------0------0--------------------------------------|
Comments