Parachute - Kiss Me Slowly Chords & Tabs

 

Kiss Me Slowly Chords & Tabs

Parachute Chords & Tabs

Version: 2 Type: Bass Tab 0 ratings
1 star 2 stars 3 stars 4 stars 5 stars
comments

Kiss Me Slowly Bass Tab

   
Artist: Parachute
Song: Kiss Me Slowly
Tabbed By : Fenrir


First Chorus
G|--------------------------------------|
D|--------------------------------------|
A|----17~\-----12~\-----9~\-----7~\\(0)-| X2
E|--------------------------------------|

Verse
G|------------------------------------------------------------|
D|------------------------------------------------------------|
A|------------------------------------------------------------| X3
E|--(12)\\2-22-2--4-5-55-5--9-10-1010-10-12-1212-12\\---------|

Chorus
G|-------------------------------------------|
D|-------------------------------------------|
A|-----5-55-----------------2//7-77-7--------| x2
E|----------55-5-5\--2-22-2------------------|

G|------------------------------------------------------|
D|--------------7-77-7--76-------------------//11p9p7---|
A|-----5-55--5-7-----------9-99-9-97-7-77-7-------------| 
E|------------------------------------------------------|
[ Tab from: http://www.guitartabs.cc/tabs/p/parachute/kiss_me_slowly_btab_ver_2.html ]
G|-------------------------------------------|
D|-------------------------------------------|
A|-----5-55-54----------------------24-------| 
E|-------------55-5-54--2-22-2-0---5---------|

G|--------------------------------------------------|
D|--------------7-77-7--76--------------------------|
A|-----5-55--5-7-----------9-99-9-97-7~-------------| 
E|--------------------------------------------------|

Rest

G|-------------------------------------------|
D|-------------------------------------------|
A|-----5-55-----------------2//7-77-7--------|
E|----------55-5-5\--2-22-2------------------|

G|-------------------------------------------|
D|-------------------------------------------|
A|-----5-55-54----------------------24-------| 
E|-------------55-5-54--2-22-2-0---5---------|

G|-------------------------------------------|
D|-------------------------------------------|
A|-----5-55-----------------2//7-77-7--------| x2
E|----------55-5-5\--2-22-2------------------|

Outro:
G|-------------------|
D|-------------------|
A|-----7~------------|
E|-------------------|

| //  slide up
| \\  slide down
| h  hammer-on
| p  pull-off
| ~  vibrato
| +  harmonic
| x  Mute note
Comments