Parachute - Hurricane Chords & Tabs

 

Hurricane Chords & Tabs

Parachute Chords & Tabs

Version: 2 Type: Tab 0 ratings
1 star 2 stars 3 stars 4 stars 5 stars
comments

Hurricane Tab

   
-------------------------------------------------------------------------------
                             Hurricane(Acoustic Version) - Parachute
-------------------------------------------------------------------------------
Tabbed by: John Nguyen
E-mail: iamjohnsemailaddress@yahoo.com

Tuning: EADGBe Standard
Capo 3rd Fret
All notes are relative to the Capo

Chords Used:

Em7    022030
Dmaj   200230
G      320030
Cadd9  X23030
F#7    X54030


Intro and Verse 1
e|------------------------------------------------------------------------------------|
B|----------------------------3----------------------------------------3--------------|
G|--0--2--0----------0-----0----------0------0--2--0----------0-----0----------0------|
D|--2--0--0-------0--------------0h2---------2--0--0-------0--------------0h2---------| X4
A|-----------0h2--------3-----------------------------0h2--------3--------------------|
E|--0--2--3----------------------------------0--2--3----------------------------------|

I'm telling you I went dry
I couldn't do it anymore
Told myself that I was fine
It was something that I'd just ignore
That I'd feel a weight lift up
The moment that I followed through
But I guess I fooled myself
Cause I never really wanted to


Pre-Chorus
     F#7    Em7 Cadd9     F#7      Em7  Cadd9
e|----0------0----0--------0--------0----0--|
B|----3------3----3--------3--------3----3--|
G|----0------0----0--------0--------0----0--|
D|----4------2----2--------4--------2----2--|
A|----5------2----3--------5--------2----3--|
E|------------------------------------------|

Oh I knew
That even if I kept you in the dark
It would never do
Because it only takes a spark


Chorus - Strum Throughout Refer to Song for strumming pattern
    Em7  Cadd9   G   F#7   Em7  Cadd9  F#7
e|---0-----0-----0----0-----0-----0-----0------|
B|---3-----3-----3----3-----3-----3-----3------|
G|---0-----0-----0----0-----0-----0-----0------|
D|---2-----2-----0----4-----2-----2-----4------| X2
A|---2-----3-----2----5-----2-----3-----5------|
E|---------------3-----------------------------|

I'm standing in the pouring rain
I feel it like a hurricane
A photograph is all it takes
But I know I shouldn't let it
And the memory is rising fast
It's seeping in through every crack
Oh funny how it all comes back
When you're trying to forget it

Here comes the hurricane
Here comes the hurricane
[ Tab from: http://www.guitartabs.cc/tabs/p/parachute/hurricane_tab_ver_2.html ]
 
Verse 2
e|------------------------------------------------------------------------------------|
B|----------------------------3----------------------------------------3--------------|
G|--0--2--0----------0-----0----------0------0--2--0----------0-----0----------0------|
D|--2--0--0-------0--------------0h2---------2--0--0-------0--------------0h2---------| X2
A|-----------0h2--------3-----------------------------0h2--------3--------------------|
E|--0--2--3----------------------------------0--2--3----------------------------------|

Oh when I cut you off
It was something that I had to do
You can try to push it down
But it's always going to follow you
And yeah if you close your eyes
It doesn't mean you fell asleep
Oh and I could keep you out
But you're never really gonna leave


Pre-Chorus
     F#7    Em7 Cadd9     F#7      Em7  Cadd9
e|----0------0----0--------0--------0----0--|
B|----3------3----3--------3--------3----3--|
G|----0------0----0--------0--------0----0--|
D|----4------2----2--------4--------2----2--|
A|----5------2----3--------5--------2----3--|
E|------------------------------------------|

Oh I knew
That even if I kept you in the dark
It would never do
Because it only takes a spark


Chorus - Strum Throughout Refer to Song for strumming pattern
    Em7  Cadd9   G   F#7   Em7  Cadd9  F#7
e|---0-----0-----0----0-----0-----0-----0------|
B|---3-----3-----3----3-----3-----3-----3------|
G|---0-----0-----0----0-----0-----0-----0------|
D|---2-----2-----0----4-----2-----2-----4------|
A|---2-----3-----2----5-----2-----3-----5------|
E|---------------3-----------------------------|

I'm standing in the pouring rain
I feel it like a hurricane
A photograph is all it takes
But I know I shouldn't let it
And the memory is rising fast
It's seeping in through every crack
Oh funny how it all comes back
When you're trying to forget it

Here comes the hurricane
Here comes the hurricane


Bridge
    Cadd9  G   F#7
e|----0----0----0----|
B|----3----3----3----|
G|----0----0----0----|
D|----2----0----4----|
A|----3----2----5----|
E|---------3---------|

Everybody knows I didn't want it to end
Everybody knows I didn't want it to end

Repeat Chorus 

End


************************************

| /   slide up
| \   slide down
| h   hammer-on
| p   pull-off
| ~   vibrato
| +   harmonic
| x   Mute note
| b   Bend
| pb  Pre-bend
| br  Bend release
| pbr Pre-bend release
| brb Bend release bend

************************************
Comments