Pappo - Sube A Mi Voiture Chords & Tabs

 

Pappo Chords & Tabs

Version: 1 Type: Tab 0 ratings
1 star 2 stars 3 stars 4 stars 5 stars
comments

Sube A Mi Voiture Tab

   
intro

|-10-10-10-10-10-10-10-10-10-10-10-10--------|--|----------------------------|
|-10-10-10-10-10-10-10-10-10-10-10-10--------|--|----17b-17b-15--15-17-17b---|
|--------------------------------------11----|x2|--14----------16------------|
|------------------------------------------12|--|----------------------------|
|--------------------------------------------|--|----------------------------|
|--------------------------------------------|--|----------------------------|

|----------------------------------------17b-17-------------------------------------------|
|----15-17--15--17-17b-17b--20b-20-19-------------15-17--15---17b-17-15--15---------------|
|--16-----16-------------------------19---------16-----16--16----------16--16---12-10/11--|
|-------------------------------------------------------------------------------12-12/12--|
|-----------------------------------------------------------------------------------------|
|-----------------------------------------------------------------------------------------|
 D
yenny es la mujer que amo
y yo no comprendo por que
                                     
la pasan a buscar
y ella sin mirar                      
sube a cualquier mercedez benz
[ Tab from: http://www.guitartabs.cc/tabs/p/pappo/sube_a_mi_voiture_tab.html ]
           G
sube a mi voiture
           D
sube a mi voiture
        A
sube a mi voiture
     G                    D
y olvida los mercedez benz


desde mi punto de vista
jenny lo que hace esta mal
                                      
ella no mira a quien
se cree que esta bien                   
lo hace sin saber por que

sube a mi voiture
sube a mi voiture
sube a mi voiture
y olvida los mercedez benz

yenny, la pasan a buscar
yenny, y ella sin mirar
yenny, sube a cualquier mercedez benz
yenny
sube a mi voiture
y olvida los mercedez benz

yenny, ella no mira a quien
yenny, se cree que esta bien
yenny, lo hace sin saber por que
yenny
sube a mi voiture
y olvida los mercedez benz

final
|--------------------------------------10------10-----10--------------|
|-----------------------------------10----10-9----9-8----8-7----------|
|---------------------------------------------------------------4--5--|
|---------------------------------------------------------------3--4--|
|--5--0-2-3----------------3-4-5--------------------------------4--5--|
|------------3-2-0--3-4-5---------------------------------------------|


Aguante el Guitarrista mas grande de la Argentina!!!
viva el carpo!!!


HerNaN 

http://www.buenagenterock.com.ar
Comments