Papa Roach - Walking Thru Barbed Wire Chords & Tabs

 

Walking Thru Barbed Wire Chords & Tabs

Papa Roach Chords & Tabs

Version: 1 Type: Tab 0 ratings
1 star 2 stars 3 stars 4 stars 5 stars
comments

Walking Thru Barbed Wire Tab

   
Papa Roach
Walking Through Barbed Wire
Tabbed by Aaron Bridgeman (leprosy_head@hotmail.com)

Dropped D Tuning (D A D G B e)

INTRO
E|---------------------|
B|---------------------|
G|---------------------|
D|-7--7--7---3-3-3-3-2-|
A|-7--7--7---3-3-3-3-2-|
D|-7--7--7---3-3-3-3-2-|

E|--------------------------------------------------------|
B|--------------------------------------------------------|
G|----------10-10-10-10---------------------10-10-10-10-7-|
D|-7--7--7--x--x--x--x-- 3 times --7--7--7--x--x--x--x--x-|
A|-7--7--7--8--8--8--8-------------7--7--7--8--8--8--8--5-|
D|-7--7--7-------------------------7--7--7----------------|

VERSE
E|------------------------------------------------------------|
B|------------------------------------------------------------|
G|------------------------------------------------------------|
D|-3--------3------3--2--3--3----x-x-x-x----3------3--2--3--3-|
A|-3--------3------3--2--3--3----x-x-x-x----3------3--2--3--3-|
D|-3--------3------3--2--3--3----x-x-x-x----3------3--2--3--3-| ...and so on

CHORUS
E|-------------------------------------------------------|
B|-------------------------------------------------------|
G|-------------------------------------------------------|
D|-7--7--7---------5--5--5--------3--3--3------3-3---5-5-|
A|-7--7--7---------5--5--5--------3--3--3------3-3---5-5-|
D|-7--7--7---------5--5--5-----7\-3--3--3------3-3---5-5-|
[ Tab from: http://www.guitartabs.cc/tabs/p/papa_roach/walking_thru_barbed_wire_tab.html ]
BRIDGE RIFFS
E|------------------------------------------------|
B|------------------------------------------------|
G|----------------------------------------5--5--5-|
D|-3--3--3------5--5--5------7--7--7------5--5--5-|
A|-3--3--3------5--5--5------7--7--7------3--3--3-|
D|-3--3--3------5--5--5------7--7--7------5--5--5-|

E|---------------------------------------------------------------->
B|---------------------------------------------------------------->
G|----------10-10-10-10----------10-10-10-10----------10-10-10-10->
D|-7--7--7--x--x--x--x--7--7--7--x--x--x--x--7--7--7--x--x--x--x-->
A|-7--7--7--8--8--8--8--7--7--7--8--8--8--8--7--7--7--8--8--8--8-->
D|-7--7--7--------------7--7--7--------------7--7--7-------------->

>---------------------------------------------------------------------------->
>---------------------------------------------------------------------------->
>----------10-10-10-10-9-7------------14-14-14-14----------14-14-14-14-17-14->
>-7--7--7--x--x--x--x--x-x---8--8--8--x--x--x--x---8--8--8-x--x--x--x--x--x-->
>-7--7--7--8--8--8--8--7-5---8--8--8--12-12-12-12--8--8--8-12-12-12-12-15-12->
>-7--7--7--------------------8--8--8---------------8--8--8------------------->

>-------------------------------------------------|
>-------------------------------------------------|
>----------14-14-14-14----------12-12-12-12-14-12-|
>-8--8--8--x--x--x--x---8--8--8-x--x--x--x--x--x--|
>-8--8--8--12-12-12-12--8--8--8-10-10-10-10-12-10-|
>-8--8--8---------------8--8--8-------------------|

TO END
E|------------------------------------------------------------|
B|------------------------------------------------------------|
G|----------------------------------------5--5--5-------------|
D|-3--3--3------5--5--5------7--7--7------5--5--5--3--3--3--2-|
A|-3--3--3------5--5--5------7--7--7------3--3--3--3--3--3--2-|
D|-3--3--3------5--5--5------7--7--7------5--5--5--3--3--3--2-|
Let that last note ring out
Comments