Papa Roach - Walking Through Barbed Wire Chords & Tabs

 

Walking Through Barbed Wire Chords & Tabs

Papa Roach Chords & Tabs

Version: 7 Type: Tab 0 ratings
1 star 2 stars 3 stars 4 stars 5 stars
comments

Walking Through Barbed Wire Tab

   
DATE: 02/18/03
BAND: Papa Roach
SONG: Walking Throu Barbed Wire
ÁLBUM: Lovehatetragedy
TUNING: DROPPED D. (D-A-D-G-B-E)
TABBED BY: Juan Ignacio Insua.

Hey what up guys?
This is the new version of this song, and like the another tab that I did, it's 100 % right.
Enjoy!
 
Intro 1                                                                        

-------------------         
-------------------
2-2-2-2------------
2-2-2-2---3-3-3-2-2
0-0-0-0---3-3-3-2-2
----------3-3-3-2-2    x4

Intro 2 

-------------------                  -----
-------------------                  -----
---------1010101010                  7-7-7
7-7-7-7------------                  -----
7-7-7-7---8-8-8-8-8                  5-5-5
7-7-7-7------------    x4   Then     -----

Riff

This part has to be played four times. This is for the first and third time.
--------------------------------------------------
--------------------------------------------------
--------------------------------------------------
0-3-3----0-3-3--3-3-3--2-2-2--3-3-x-x-x-x-3-3--3-2
0-3-3----0-3-3--3-3-3--2-2-2--3-3-x-x-x-x-3-3--3-2
0-3-3----0-3-3--3-3-3--2-2-2--3-3-x-x-x-x-3-3--3-2       

This is for the second time.
--------------------------------------------------
--------------------------------------------------
--------------------------------------------------
0-3-3----0-3-3--3-3-3--2-2-2--3-3-x-x-x-x-3-3--3-5
0-3-3----0-3-3--3-3-3--2-2-2--3-3-x-x-x-x-3-3--3-5
0-3-3----0-3-3--3-3-3--2-2-2--3-3-x-x-x-x-3-3--3-5

And this is for the fourth time.
------------------------------------------------
------------------------------------------------
------------------------------------------------
0-3-3----0-3-3--3-3-3--2-2-2--3-3-x-x-x-x-3-3--5
0-3-3----0-3-3--3-3-3--2-2-2--3-3-x-x-x-x-3-3--5
0-3-3----0-3-3--3-3-3--2-2-2--3-3-x-x-x-x-3-3--5 


Riff 2
[ Tab from: http://www.guitartabs.cc/tabs/p/papa_roach/walking_through_barbed_wire_tab_ver_7.html ]
------------------------------------------
------------------------------------------
------------------------------------------
7-7-7----5-5-5--7-5--3-3-3----3-3-3--5-3-5
7-7-7----5-5-5--7-5--3-3-3----3-3-3--5-3-5
7-7-7----5-5-5--7-5--3-3-3----3-3-3--5-3-5

Interludio

-------------------------------
-------------------------------
-------------------------------
3-3-3----5-5-5----7-7-7---7-7-7
3-3-3----5-5-5----7-7-7---5-5-5
3-3-3----5-5-5----7-7-7---7-7-7 

Riff 3

There are 2 guitars here: one under the other.

GUITAR 1
-------------------                  -------
-------------------                  -------
---------1010101010                  9-9-9-7
7-7-7-7------------                  -------
7-7-7-7---8-8-8-8-8                  7-7-7-5
7-7-7-7------------    x4   Then     -------

-------------------                  ------
-------------------                  ------
---------1414141414                  121412
8-8-8-8------------                  ------
8-8-8-8--1212121212                  101210
8-8-8-8------------   x4    Then     ------   

GUITAR 2
-----------------------------------------------------------------------
-----------------------------------------------------------------------
2--0-2-0---4s5-4-2-------------------------------------------12--14--10
---------2---------2--0--2--3-2-0-----2-3-2-0-----2-3-2-0--------------
-------------------------------------------------------------10--12--10
-----------------------------------------------------------------------   

Ending

----------------------------------------
----------------------------------------
----------------------------------------
3-3-3----5-5-5----7-7-7---7-7-7--3-3-3-2
3-3-3----5-5-5----7-7-7---5-5-5--3-3-3-2
3-3-3----5-5-5----7-7-7---7-7-7--3-3-3-2


ORDER

* Intro 1
* Intro 2
* Riff
* Riff  2
* Intro 1
* Riff  
* Riff  2
* Intro 1  x2 times.
* Interludio
* Riff  3  x2 times.  
* Ending

That's all!!!
Comments