Papa Roach - Walking Through Barbed Wire Chords & Tabs

 

Walking Through Barbed Wire Chords & Tabs

Papa Roach Chords & Tabs

Version: 2 Type: Tab 0 ratings
1 star 2 stars 3 stars 4 stars 5 stars
comments

Walking Through Barbed Wire Tab

Ok people. This is "Walking Through Barbed Wire" by Papa Roach. I 
don't have the exact number of strums, but you get the idea. I'm not 
too sure about the solo part yet. Enjoy.


Intro
e|----------------
B|----------------
G|----------------
D|-7-7-7-3-3-2---- x6
A|-7-7-7-3-3-2----
E|-7-7-7-3-3-2----

e|----------------
B|----------------
G|-------10-10-10-
D|-7-7-7-x--x--x-- x3
A|-7-7-7-8--8--8--
E|-7-7-7----------

e|----------------
B|----------------
G|-------10-10-7--
D|-7-7-7-x--x--x--
A|-7-7-7-8--8--5--
E|-7-7-7----------

[ Tab from: http://www.guitartabs.cc/tabs/p/papa_roach/walking_through_barbed_wire_tab_ver_2.html ]
Verse
e|---------------------
B|---------------------
G|---------------------
D|-3-3--3-3-3--3-3-3\2-
A|-3-3--3-3-3--3-3-3\2-
E|-3-3--3-3-3--3-3-3\2-

e|-------------------------
B|-------------------------
G|-------------------------
D|-3-3-xxxx-3-3-3--3-3-3/5-
A|-3-3-xxxx-3-3-3--3-3-3/5-
E|-3-3-xxxx-3-3-3--3-3-3/5-

e|------------------------------------
B|------------------------------------
G|------------------------------------
D|-7-7-7--5-5-5--7\3-3-3--3-3-3-5-5-5-
A|-7-7-7--5-5-5--7\3-3-3--3-3-3-5-5-5-
E|-7-7-7--5-5-5--7\3-3-3--3-3-3-5-5-5-

Outro
e|---------------------------------------
B|---------------------------------------
G|---------------------------------------
D|-3-3-3--5-5-5--7-7-7--5-5-5--3-3-3-3\2-
A|-3-3-3--5-5-5--7-7-7--5-5-5--3-3-3-3\2-
E|-3-3-3--5-5-5--7-7-7--5-5-5--3-3-3-3\2-
Comments