Papa Roach - Walking Through Barbed Wire Chords & Tabs

 

Walking Through Barbed Wire Chords & Tabs

Papa Roach Chords & Tabs

Version: 1 Type: Bass Tab 0 ratings
1 star 2 stars 3 stars 4 stars 5 stars
comments

Walking Through Barbed Wire Bass Tab

-------------------------------------------------------------------------------
	     walkin' thru barbed wire - papa roach
-------------------------------------------------------------------------------

Tabbed By : shawn
e-mail: crazyfingersbmx@aol.com

Tuning:dropped d (dadg)

G|----------------|
D|----------------|      Part 1
A|----------------|
D|--7-7-7-3-333-2-|

G|----------------------------------------------------------------|
D|----------------------------------------------------------------| Part 2
A|----------88888----------88888----------88888----------8888-7---|
E|--7-7-7-7--------7-7-7-7--------7-7-7-7--------7-7-7-7----------|

G|----------------------------------------------------|
D|----------------------------------------------------|    Part 3
A|----------------------------------------------------|
E|--3--3-3--3--3-3-333-2---3--3-3--xxxx-3-333-2\5-----|
[ Tab from: http://www.guitartabs.cc/tabs/p/papa_roach/walking_through_barbed_wire_btab.html ]
G|----------------------------------------------------|
D|----------------------------------------------------|    Part 4
A|----------------------------------------------------|
E|--7-7-7----5-5-5----5\3--3-3-3--3-3-3-5555-5-5------|

G|----------------------------------------------------------------|
D|----------------------------------------------------------------|
A|----------1010101010--------10101010/11\10-----------1010101010-|
E|--9-9-9-9-------------9-9-9------------------9-9-9-9------------|

G|--------------------|
D|--------------------|   Part 5
A|----------10-10/9---|
E|--9-9-9-9-----------|

G|----------------------------------------------|
D|----------------------------------------------|
A|----------------------------------------------|
E|--3-3-3--5-5-5--7-7-7--5-5-5-333p0-let-ring---|


 The song order isn't that hard to follow. If you know the song you should
be able to pick it up.

| /  slide up
| \  slide down
| p  pull-off
| x  Mute note
===============================================================================
Comments