Papa Roach - Tyranny Or Normality Chords & Tabs

 

Tyranny Or Normality Chords & Tabs

Papa Roach Chords & Tabs

Version: 1 Type: Tab 0 ratings
1 star 2 stars 3 stars 4 stars 5 stars
comments

Tyranny Or Normality Tab

Alright, just one part on the bridge I'm not too sure about but the rest is fine.

!IMPORTANT!
 TUNING: Low to High BFbEAD(double drop D with other 4 strings down 2 steps)
!IMPORTANT!



!!!Note!!!
D|------------------------------------------------------|
A|------------------------------------------------------|
E|------------------------------------------------------| Do which you like
b|---------------------IS THE SAME AS-------------------| 
F|----8-5-----------------------------------------------|
B|--------10-7-10-12-------------------15-12-10-7-10-12-|

OR EVEN
D|----------------------------------|
A|----------------------------------|
E|----------------------------------| 
b|----------------------------------|
F|----8-5-3-0-3-5-------------------|
B|----------------------------------|

1st strum doesn't matter, just hit it hard and use top half strings...+ lots of dist.

******
Intro*
******

D|-#$&*%^------------------------------------------------------------------|
A|-)@#*$(------------------------------------------------------------------|
E|-!)*#%^----------------------------f-------------------------------------|
b|-)&$#*$---0--10-12--0---10-12--0---a-------------------------------------|
F|----------0--10-12--0---10-12--0---s--8-5-3-0-3-5------------------------|
B|----------0--10-12--0---10-12--0---t-------------------------------------|

D|-------------------------------------------------------------------------|
A|-------------------------------------------------------------------------|
E|-------------------------------------------------------------------------|
b|----------0--10-12--0---10-12--0-----33-0-5-0-7--------------------------|
F|----------0--10-12--0---10-12--0-----33-0-5-0-7--------------------------|
B|----------0--10-12--0---10-12--0-----33-0-5-0-7--------------------------|

D|-------------------------------------------------------------------------|
A|-------------------------------------------------------------------------|
E|-----------------------------------f-------------------------------------|
b|----------0--10-12--0---10-12--0---a-------------------------------------|
F|----------0--10-12--0---10-12--0---s--8-5-3-0-3-5------------------------|
B|----------0--10-12--0---10-12--0---t-------------------------------------|

D|-------------------------------------------------------------------------|
A|-------------------------------------********----------------------------|
E|-------------------------------------66666666----------------------------|
b|----------0--10-12--0---10-12--0-----66666666----------------------------|
F|----------0--10-12--0---10-12--0-----44444444----------------------------|
B|----------0--10-12--0---10-12--0-----********----------------------------|

******
Verse*
******
D|-------------------------------------------------------------------------|
A|-------------------------------------------------------------------------|
E|-xx-66--9-8--xx-66--9-8-66-------------------xx-66--9-8--xx-66--6--------|
b|-xx-66--9-8--xx-66--9-8-66--x3-4TH TIME GO---xx-66--9-8--xx-66--6--------|
F|-xx-44--7-6--xx-44--7-6-44-------------------xx-44--7-6--xx-44--4--------|
B|-------------------------------------------------------------------------|

*******
Chorus* Different to intro
*******

D|-------------------------------------------------------------------------|
A|-------------------------------------------------------------------------|
E|-----------------------------------f-------------------------------------|
b|----------0--10-12--0-0-10-12--0---a-------------------------------------|
F|----------0--10-12--0-0-10-12--0---s--8-5-3-0-3-5------------------------|
B|----------0--10-12--0-0-10-12--0---t-------------------------------------|

D|-------------------------------------------------------------------------|
A|-------------------------------------------------------------------------|
E|-------------------------------------------------------------------------|
b|----------0--10-12--0-0-10-12--0-----33-x-5-x-7--------------------------|
F|----------0--10-12--0-0-10-12--0-----33-x-5-x-7--------------------------|
B|----------0--10-12--0-0-10-12--0-----33-x-5-x-7--------------------------|

D|-------------------------------------------------------------------------|
A|-------------------------------------------------------------------------|
E|-----------------------------------f-------------------------------------|
b|----------0--10-12--0-0-10-12--0---a-------------------------------------|
F|----------0--10-12--0-0-10-12--0---s--8-5-3-0-3-5------------------------|
B|----------0--10-12--0-0-10-12--0---t-------------------------------------|

D|-------------------------------------------------------------------------|
A|-------------------------------------********----------------------------|
E|-------------------------------------66666666----------------------------|
b|----------0--10-12--0-0-10-12--0-----66666666----------------------------|
F|----------0--10-12--0-0-10-12--0-----44444444----------------------------|
B|----------0--10-12--0-0-10-12--0-----********----------------------------|

******
Verse*
******

D|-------------------------------------------------------------------------|
A|-------------------------------------------------------------------------|
E|-xx-66--9-8--xx-66--9-8-66-------------------xx-66--9-8--xx-66--6--------|
b|-xx-66--9-8--xx-66--9-8-66--x3-4TH TIME GO---xx-66--9-8--xx-66--6--------|
F|-xx-44--7-6--xx-44--7-6-44-------------------xx-44--7-6--xx-44--4--------|
B|-------------------------------------------------------------------------|

*******
Chorus* Different again
*******
[ Tab from: http://www.guitartabs.cc/tabs/p/papa_roach/tyranny_or_normality_tab.html ]
D|-------------------------------------------------------------------------|
A|-------------------------------------------------------------------------|
E|-----------------------------------f-------------------------------------|
b|----------0--10-12--0-0-10-12--0---a-------------------------------------|
F|----------0--10-12--0-0-10-12--0---s--8-5-3-0-3-5------------------------|
B|----------0--10-12--0-0-10-12--0---t-------------------------------------|

D|-------------------------------------------------------------------------|
A|-------------------------------------------------------------------------|
E|-------------------------------------------------------------------------|
b|----------0--10-12--0-0-10-12--0-----33-x-5-x-7--------------------------|
F|----------0--10-12--0-0-10-12--0-----33-x-5-x-7--------------------------|
B|----------0--10-12--0-0-10-12--0-----33-x-5-x-7--------------------------|

D|-------------------------------------------------------------------------|
A|-------------------------------------------------------------------------|
E|-----------------------------------f-------------------------------------|
b|----------0--10-12--0-0-10-12--0---a-------------------------------------|
F|----------0--10-12--0-0-10-12--0---s--8-5-3-0-3-5------------------------|
B|----------0--10-12--0-0-10-12--0---t-------------------------------------|

D|-------------------------------------------------------------------------|
A|-------------------------------------------------------------------------|
E|-------------------------------------------------------------------------|
b|----------0--10-12--0-0-10-12--0-----33-x-5-x-7--------------------------|
F|----------0--10-12--0-0-10-12--0-----33-x-5-x-7--------------------------|
B|----------0--10-12--0-0-10-12--0-----33-x-5-x-7--------------------------|

*******
Bridge*
*******

D|-------------------------------------------------------------------------|
A|-55555-----44444---------------------------------------------------------|
E|-66666-etc-66666-etc-----------------------------------------------------|
b|-66666-----66666------0--3-5-0-0-3-5--0----------------------------------|
F|----------------------0--3-5-0-0-3-5--0--8-5-3-0-3-----------------------|
B|----------------------0--3-5-0-0-3-5--0----------------------------------|
 It's the death of...   I WANT TO TURN A NEW PAGE!!!


D|-------------------------------------------------------------------------|
A|-5-----4-----2-----0-----------------------------------------------------|
E|-6-etc-6-etc-4-etc-4-etc-------------------------------------------------|
b|-6-----6-----4-----4-------0--3-5-0-0-3-5--0-----------------------------|
F|---------------------------0--3-5-0-0-3-5--0--8-5-3-0-3------------------|
B|---------------------------0--3-5-0-0-3-5--0-----------------------------|
I'm on the death of...      THE OBITUARY'S ON THE FRONT PAGE!

Now after this its just repeayts of this and at the last bit before the chorus
some cleanish chords through a continous srumming of the top bits which runs into
....More chorus different aswell.


*******
Chorus* Different again
*******

D|-------------------------------------------------------------------------|
A|-------------------------------------------------------------------------|
E|-----------------------------------f-------------------------------------|
b|----------0--10-12--0-0-10-12--0---a-------------------------------------|
F|----------0--10-12--0-0-10-12--0---s--8-5-3-0-3-5------------------------|
B|----------0--10-12--0-0-10-12--0---t-------------------------------------|

D|-------------------------------------------------------------------------|
A|-------------------------------------------------------------------------|
E|-------------------------------------------------------------------------|
b|----------0--10-12--0-0-10-12--0-----33-x-5-x-7--------------------------|
F|----------0--10-12--0-0-10-12--0-----33-x-5-x-7--------------------------|
B|----------0--10-12--0-0-10-12--0-----33-x-5-x-7--------------------------|

D|-------------------------------------------------------------------------|
A|-------------------------------------------------------------------------|
E|-----------------------------------f-------------------------------------|
b|----------0--10-12--0-0-10-12--0---a-------------------------------------|
F|----------0--10-12--0-0-10-12--0---s--8-5-3-0-3-5------------------------|
B|----------0--10-12--0-0-10-12--0---t-------------------------------------|

D|-------------------------------------------------------------------------|
A|-------------------------------------------------------------------------|
E|-------------------------------------------------------------------------|
b|----------0--10-12--0-0-10-12--0-----33-x-5-x-7--------------------------|
F|----------0--10-12--0-0-10-12--0-----33-x-5-x-7--------------------------|
B|----------0--10-12--0-0-10-12--0-----33-x-5-x-7--------------------------|

Now sweet part

this isnt really 100% accurate but its close enough it isnt hard to play just
hard for me to write down.. just a mixture of open 3rd frets 5th frets 10th
and 12 frets its pretty damn close i'd say though

D|-------------------------------------------------------------------------|
A|-------------------------------------------------------------------------|
E|-------------------------------------------------------------------------|
b|----------0--3-5-0-0-10-12-----------------------------------------------|
F|----------0--3-5-0-0-10-12--8-5-3-0-3-5----------------------------------|
B|----------0--3-5-0-0-10-12-----------------------------------------------|

D|-------------------------------------------------------------------------|
A|-------------------------------------------------------------------------|
E|-------------------------------------------------------------------------|
b|----------0--3-5-0-0-10-12--0-3-0-3!!!-----------------------------------|
F|----------0--3-5-0-0-10-12--0-3-0-3!!!-----------------------------------|
B|----------0--3-5-0-0-10-12--0-3-0-3!!!-----------------------------------|

mmmmm....one of the best songs...good to crank it up too....
Comments