Papa Roach - Tyranny Of Normality Chords & Tabs

 

Tyranny Of Normality Chords & Tabs

Papa Roach Chords & Tabs

Version: 1 Type: Tab 0 ratings
1 star 2 stars 3 stars 4 stars 5 stars
comments

Tyranny Of Normality Tab

   
-------------------------------------------------------------------------------   
                   Tyranny of Normality - Papa Roach
-------------------------------------------------------------------------------
Tabbed by: Nic
Email: AIM- Munky861

Tuning: Ok the whole guitar is flatted...and he is down to B...but his first string
is at a D..

Im just gonna start off and say...this tab is not perfect...espiacally the bridge...
just wanted to get teh main riff out their so people could rock to it and figure out
the rest.  Remeber the G and A are flats...So its basicly in C flat tuning

Opening
D|-2-------------------------------------------------------------------------|
A|-3-------------------------------------------------------------------------|
E|-2-------------------------------------------------------------------------|
B|-0-------------------------------------------------------------------------|
G|------0--10--12---0----10--12--0---15--12-10--0--10--12--------------------|
B|------0--10--12---0----10--12--0---15--12-10--0--10--12--------------------|

D|---------------------------------------------------------------------------|
A|---------------------------------------------------------------------------|
E|-----------------------------5---------------------------------------------|
B|-----------------------------3p0-------------------------------------------|
G|-0--10--12--0--10--12--0------------5-3------------------------------------|
B|-0--10--12--0--10--12--0------------5-3------------------------------------|

Thats the opening...fool around with the 2nd half I couldnt get the exact thing...
watch the rythym also...a little tricky.
[ Tab from: http://www.guitartabs.cc/tabs/p/papa_roach/tyranny_of_normality_tab.html ]
Verse
D|--0------0-----0-----------------------------------------------------------|
A|--6------6-----5-----------------------------------------------------------|
E|--7------7-----7-----------------------------------------------------------|
B|--7------7-----7-----------------------------------------------------------|
G|--5------------------------------------------------------------------------|
B|---------------------------------------------------------------------------|

A few rythym change ups on that verse...Then it goes back to opening riff for
chorus.

Bridge...not perfect...but sounds ok when you play along

D|--0----0-------------------------------------------------------------------|
A|--3----5-------------------------------------------------------------------|
E|--0----0-------------------------------------------------------------------|
B|--3----5-------------------------------10\7-----5/7------------------------|
G|--1----3------0---3---5----0---3---5----8\5--0--3/5------------------------|
B|--------------0---3---5----0---3---5---------0-----------------------------|
This repeats a fw times...and then it goes like this at the end of the bridge
D|-0----0-----0--------------------------------------------------------------|
A|-3----5-----6--------------------------------------------------------------|
E|-0----0-----0--------------------------------------------------------------|
B|-3----5-----7--------------------------------------------------------------|
G|-1----3-----5--------------------------------------------------------------|
B|---------------------------------------------------------------------------|

and then it goes back to the chorus.  And thats about all I believe. Remember its
basicly drop C tuning (CGCFAD) Only everything is flatted...making it B..G
flat...B...E...A flat...D (not flatted) If yoru guitar isnt tuned perfectly it wont
sound right at all.  If you figure otu something that sounds better...please send me
an IM

| /  slide up
| \  slide down
| h  hammer-on
| p  pull-off
| ~  vibrato
| +  harmonic
| x  Mute note
===============================================================================
Comments