Papa Roach - Time And Time Again Chords & Tabs

 

Time And Time Again Chords & Tabs

Papa Roach Chords & Tabs

Version: 1 Type: Tab 0 ratings
1 star 2 stars 3 stars 4 stars 5 stars
comments

Time And Time Again Tab

"Time And Time Again"
   by - Papa Roach



Intro:

e-|-----------------------------------|
B-|-----------------------------------|
G-|-----------------------------------|
D-|---2-2-2-5-5-5-3-3-3-5-5-5-6-6-8---| Play 3 times, then play...
A-|---2-2-2-5-5-5-3-3-3-5-5-5-6-6-8---|
d-|---2-2-2-5-5-5-3-3-3-5-5-5-6-6-8---|

e-|-------------------------------------------------------------|
B-|-------------------------------------------------------------|
G-|-------------------------------------------------------------|
D-|-------------------------------------------------------------|
A-|-------------------------------------------------------------|
d-|---10-10-10---10-10-10---10-10-10---10-10-10---10-10-10-10---|

Verse:

I'm pretty sure it does some pattern similar to this. It's hard to tell though because
theres so many effects. Try this out, and use alot of muted slides and crap too.

e-|-------------------------------------|
B-|-------------------------------------|
G-|-------------------------------------|
D-|-------------------------------------|
A-|-------------------------------------|
d-|---2-2-5-5-3-3-5-5-6-6-9-9-7-7-9-9---|

Chorus:
[ Tab from: http://www.guitartabs.cc/tabs/p/papa_roach/time_and_time_again_tab.html ]
e-|-----------------------------------------------------------|
B-|-----------------------------------------------------------|
G-|-----------------------------------------------------------|
D-|---7-7-7---7---10-10-10---10-10-10s3-3-3---3---5-5-5---5---|
A-|---7-7-7---7---10-10-10---10-10-10s3-3-3---3---5-5-5---5---|
d-|---7-7-7---7---10-10-10---10-10-10s3-3-3---3---5-5-5---5---|

Bridge:

e-|------------------------------------------------------------------------|
B-|------------------------------------------------------------------------|
G-|------------------------------------------------------------------------|
D-|---7-7---7-7---7---10-10---10-10---10---3-3---3-3---3---5-5---5-5---5---| Play 2 times, and end with...
A-|---7-7---7-7---7---10-10---10-10---10---3-3---3-3---3---5-5---5-5---5---|
d-|---7-7---7-7---7---10-10---10-10---10---3-3---3-3---3---5-5---5-5---5---|

e-|---------------------|
B-|------(-muted-)------|
G-|---------------------|
D-|---5-5-5-5-5-5-5-5---|
A-|---5-5-5-5-5-5-5-5---|
d-|---5-5-5-5-5-5-5-5---|


MERRY CHRISTMAS! That's the whole song. If the chords don't match up try moving the patterns around the fretboard.



Comments