Papa Roach - Tightrope Chords & Tabs

 

Tightrope Chords & Tabs

Papa Roach Chords & Tabs

Version: 1 Type: Bass Tab 0 ratings
1 star 2 stars 3 stars 4 stars 5 stars
comments

Tightrope Bass Tab

Papa Roach 
Hidden track called tightrope
Artist: Papa Roach
Song: Hidden Track (Tightrope)
Tabbed By: Brian Lebo (BUDERFER@aol.com)

Starts at 4:57 into the last track "thrown away"

Intro/Main Riff

G|---------------------------------------------------------
D|---------------------------------------------------------
A|-------------7--7-7-7-----7----------------5--5-5---5----
E|----5-5--5-------------5----5----3--3--3--------------3--

[ Tab from: http://www.guitartabs.cc/tabs/p/papa_roach/tightrope_btab.html ]
Pre-Chorus 
G|---------------------------------------------------------
D|---------------------------5-5---------------------------
A|------------------7--7-7-7-----7--------7--7-7--8-8-8-8-7
E|----5-5--5-3-3--3-----------------5-5-5------------------


Chorus
G|--------------------------------------------------------------------------------------
D|----------------------5-5----------------------------------------5--5-----------------
A|--------------7--7-77------7---------7---8-8-8-----------7--7-77-------7---------8-8-8
E|----5--3-------------------------5-------------5--3----------------------5---7-------- 

Comments