Papa Roach - Tight Rope Chords & Tabs

 

Tight Rope Chords & Tabs

Papa Roach Chords & Tabs

Version: 1 Type: Tab 0 ratings
1 star 2 stars 3 stars 4 stars 5 stars
comments

Tight Rope Tab

   
Papa Roach

Infest

Tight Rope

Chords: 
Am:    577555 
Esus4: 022200 
G:     355433 
Dsus2: x57755 
F:     133211 
[ Tab from: http://www.guitartabs.cc/tabs/p/papa_roach/tight_rope_tab.html ]
Intro/Verse/after chorus: (light distortion)
   Am        Esus4     G        Dsus2 
|--5---------0---------3--------5-------------------| 
|--5---------0---------3--------5-------------------| 
|--5---------2---------4--------7-------------------| 
|---------------------------------------------------| 
|---------------------------------------------------| 
|---------------------------------------------------| 

Chorus: (moderate distortion) 
      Am     G      Esus4         Am     Esus4     F        
|-----5------3------0------0------5------0------1------1-----| 
|-----5------3------0------0------5------0------1------1-----| 
|-----5------4------2------2------5------2------2------2-----| 
|--7------5------2------2------7------2------3------3--------| 
|--7------5------2------2------7------2------3------3--------| 
|--5------3------0------0------5------0------1------1--------|
Comments