Papa Roach - Thrown Away Chords & Tabs

 

Thrown Away Chords & Tabs

Papa Roach Chords & Tabs

Version: 3 Type: Tab 0 ratings
1 star 2 stars 3 stars 4 stars 5 stars
comments

Thrown Away Tab

   
Thrown Away
  Author: Papa Roach
  Album: Infest
  Trascribed by: Rodrigo Araujo

Dropped-D tuning 
Guitar 1
-----------------------------------------------------------------
-----------------------------------------------------------------
-----------------------------------------------------------------
-2-2--2---2-2--2---2-2--0---3-3--3---3-3--3---3-3--0-------------
-2-2--2---2-2--2---2-2--0---3-3--3---3-3--3---3-3--0-------------
-2-2--2---2-2--2---2-2--0---3-3--3---3-3--3---3-3--0-------------4x

Guitar 1 (Verse)
-----------------------------------------------------------------
-----------------------------------------------------------------
-----------------------------------------------------------------
-2-2-2--2-2-2--2-2-2--2-2-0--3-3-3--3-3-3--3-3-3--3-3-0----------
-2-2-2--2-2-2--2-2-2--2-2-0--3-3-3--3-3-3--3-3-3--3-3-0----------
-2-2-2--2-2-2--2-2-2--2-2-0--3-3-3--3-3-3--3-3-3--3-3-0----------

Guitar 2  
-----------------------------------------------------------------
-----------------------------------------------------------------
-4--5--16--17----------------------------------------------------
-2--3--14--15----------------------------------------------------
-----------------------------------------------------------------
-----------------------------------------------------------------1x
[ Tab from: http://www.guitartabs.cc/tabs/p/papa_roach/thrown_away_tab_ver_3.html ]
Chorus
-----------------------------------------------------------------
-----------------------------------------------------------------
-----------------------------------------------------------------
-4---5--7----4---6-----------------------------------------------
-2---3--5----2---6-----------------------------------------------
-----------------6-----------------------------------------------

Bridge
Guitar 1
-----------------------------------------------------------------
-----------------------------------------------------------------
-----------------------------------------------------------------
-2--2--2--2-0--3--3--3--3-0--------------------------------------
-2--2--2--2-0--3--3--3--3-0--------------------------------------
-2--2--2--2-0--3--3--3--3-0--------------------------------------

Guitar 2
--5-----5---5-----5---5-----5---5-----5--------------------------
-----2---------2---------2---------2-----------------------------
-----------------------------------------------------------------
-----------------------------------------------------------------
-----------------------------------------------------------------
-----------------------------------------------------------------1x

Outro
Guitar 1
-----------------------------------------------------------------
-----------------------------------------------------------------
--5--------------------------------------------------------------
--3--------------------------------------------------------------
-----------------------------------------------------------------
-----------------------------------------------------------------

Guitar 2
-----------------------------------------------------------------
-----------------------------------------------------------------
--5--------------------------------------------------------------
--3---6---8---1--------------------------------------------------
------4---8---1--------------------------------------------------
----------8---1--------------------------------------------------
Comments