Papa Roach - Take Me Chords & Tabs

 

Take Me Chords & Tabs

Papa Roach Chords & Tabs

Version: 3 Type: Tab 0 ratings
1 star 2 stars 3 stars 4 stars 5 stars
comments

Take Me Tab

   
Band: Papa Roach
Song: Take Me
Album: Getting Away With Murder
tabbed by: scissor
email: der.da@arcor.de

Tuning: Drop D  (D A D G B E)


Intro / Chorus
e-------------------------------------|
B-------------------------------------|
G-6-6-6-xxx-4-4-xxx-------xxx-6-6-6---|
D-6-6-6-xxx-2-2-xxx-7-7-7-xxx-4-4-4---|
A-4-4-4-xxx-0-0-xxx-4-4-4-xxx-4-4-4---|
D-----------------------------4-4-4---|

verse (all p.m. exept a few notes at the end of the verse)
e--------------------------------|
B--------------------------------|
G--------------------------------|
D-------6-6-6-------5-5-5-----5/7|  
A-4-4-4-------7-7-7-------7-7----|
D--------------------------------|
[ Tab from: http://www.guitartabs.cc/tabs/p/papa_roach/take_me_tab_ver_3.html ]
fill1 (only chords.. listen to the song for timing)
e--------------------------------|
B--------------------------------|
G-2--4---------------------------|
D-2--4---------------------------|  
A-0--2---------------------------|
D--------------------------------|
         
Pre-Chorus (only chords)
e-------------------------------------|
B-------------------------------------|
G-6-4-2--4--4-------------------------|
D-6-4-2--2--4-------------------------|
A-4-2-0--2--2-------------------------|
D--------2----------------------------|

chorus

verse
fill1

pre-chorus

chorus

fill2 (only chords...)
e---------------------------------|
B---------------------------------|
G-6-xx-6--2-----------------------|
D-6-xx-6--2--4--------------------|  
A-4-xx-4--0--4--------------------|
D------------4--------------------|

chorus

bridge (i'm not sure about it... only chords exept a few notes :-) )
e------------------------------------------------------------|
B------------------------------------------------------------|
G-6-9-8-6------6-----------2--6-4--4-------------------------|
D-6-9-8-6-11-9-6-----------2--6-4--4-------------------------|
A-4-7-6-4-11-9-4--77776666-0--4-2--2-12-12-12-12-11-11-11-11-|
D---------11-9-----------------------------------------------|

pre-chorus
chorus 

and so on

corrections ad comments: der.da@arcor.de
have fun ;-)
Comments