Papa Roach - Take Me Chords & Tabs

 

Take Me Chords & Tabs

Papa Roach Chords & Tabs

Version: 2 Type: Tab 0 ratings
1 star 2 stars 3 stars 4 stars 5 stars
comments

Take Me Tab

   
Band- Papa Roach
Song- Take Me

Intro / Chorus
e-------------------------------------|
B-------------------------------------|
G-6-6-6-xxx-2-2-xxx-7-7-7-xxx---------|
D-6-6-6-xxx-2-2-xxx-7-7-7-xxx-4-4-4---|
A-4-4-4-xxx-0-0-xxx-4-4-4-xxx-4-4-4---|
E-----------------------------2-2-2---|

VERSE
e--------------------------|
B--------------------------|
G--------------------------|
D-------6-6-6-------5-5-5--|  .... Continued (havent put much time into learning the rest)
A-4-4-4-------7-7-7--------|
E--------------------------|
 [_______________________]
           *PM*

[ Tab from: http://www.guitartabs.cc/tabs/p/papa_roach/take_me_tab_ver_2.html ]
Pre-Chorus
e-------------------------------------|
B-------------------------------------|
G-6-6-6-4-------------------4-4-4-4-4-|
D-6-6-6-4-7-7-7-7-2-2-2-2-2-4-4-4-4-4-|
A-4-4-4-2-7-7-7-7-2-2-2-2-2-2-2-2-2-2-|
E---------5-5-5-5-0-0-0-0-0-----------|


Intro / Chorus
e-------------------------------------|
B-------------------------------------|
G-6-6-6-xxx-2-2-xxx-7-7-7-xxx---------|
D-6-6-6-xxx-2-2-xxx-7-7-7-xxx-4-4-4---|
A-4-4-4-xxx-0-0-xxx-4-4-4-xxx-4-4-4---|
E-----------------------------2-2-2---|

VERSE

CHORUS

BRIDGE

CHORUS

(etc.)

Thanks, Feel free to make corrections or add on :)
Comments