Papa Roach - Take Me Chords & Tabs

 

Take Me Chords & Tabs

Papa Roach Chords & Tabs

Version: 1 Type: Tab 0 ratings
1 star 2 stars 3 stars 4 stars 5 stars
comments

Take Me Tab

   
Song- Take Me
Artist- Papa Roach
Album- Getting Away With Murder
Tabbed by- David Pearce

This is the best/one of the best songs on the album so I decided to try and figure it
out. Its not 100%, in fact its probably not even 80% right, but its a start for people
to work on. I have no idea about the verse, but the intro, pre chorus and chorus sound
right to me.
[ Tab from: http://www.guitartabs.cc/tabs/p/papa_roach/take_me_tab.html ]
INTRO|CHORUS|1st PART OF BRIDGE
e---------------------------------------|
B---------------------------------------|
G-6-6-6-xxx-------xxx-------------------|
D-6-6-6-xxx-2-2-2-xxx-7-7-7-xxx-4-4-4---|
A-4-4-4-xxx-2-2-2-xxx-7-7-7-xxx-4-4-4---|
E-----------0-0-0-----5-5-5-xxx-2-2-2---|

VERSE

PRE-CHORUS-("As days go by, my heart grows cold")
e-------------------------------------|
B-------------------------------------|
G-6-6-6-4-------------------4-4-4-4-4-|
D-6-6-6-4-7-7-7-7-2-2-2-2-2-4-4-4-4-4-|
A-4-4-4-2-7-7-7-7-2-2-2-2-2-2-2-2-2-2-|
E---------5-5-5-5-0-0-0-0-0-----------|

Any improvements welcome

Cheers
David
Comments