Papa Roach - Sweet Emotion Chords & Tabs

 

Sweet Emotion Chords & Tabs

Papa Roach Chords & Tabs

Version: 1 Type: Tab 0 ratings
1 star 2 stars 3 stars 4 stars 5 stars
comments

Sweet Emotion Tab

   
Papa Roach
"Sweet Emotion"
AeroSmith Cover
Tabbed by: Brandon Knoepfler
E-Mail: SeXCrAzY121900@aol.com
Drop D Tunning

Chorus:
E|------------------------|
B|------------------------|
G|------------------------|
D|--------5---7-----------|
A|-0--0-0---0---0-5p0-4h5-|
D|------------------------|

Verse:
E|------------------|
B|------------------|
G|-7----------------|
D|-7-7-7------5-7-0-|
A|-5-7-7--3p0-5-7-0-|
D|---7-7------5-7-0-|
[ Tab from: http://www.guitartabs.cc/tabs/p/papa_roach/sweet_emotion_tab.html ]
Pre-Chorus:
E|-------------------------|
B|-------------------------|
G|-------------------------|
D|-------4-4-4/5-5-5/6-6-7-|
A|-5-3-0-4-4-4/5-5-5/6-6-7-|
D|-------4-4-4/5-5-5/6-6-7-|

Outro:
E|--------------------|
B|--------------------|
G|-----7---9----------|
D|-0-0-7-0-9--7-2-5-6-|
A|-0-0-5-0-7--7-2-5-6-|
D|-0-0---0----7-2-5-6-|

Song Order:
Chorus - x8
Verse - x8
Pre-Chorus - x4
Verse - x8
Pre-Chorus - x4
Chorus - x8
Verse - x8
Pre-Chorus - x4
Outro - x8
Comments